Guitar Tabs, Chords and Lyrics
Server problems seems to be fixed. Chordie has been experiencing problems with songs disappearing. These issues now seems to be fixed, but still verifying the fix. If you find anything strange, please email admin@chordie.com.


Revel in Flesh   Entombed

 
 ||----------------|---------------||
 ||----------------|---------------||
 ||----------------|---------------||[Gtrs.1&2]
 ||-3-5-7---8-10-7-|-2-(2)---------||
 ||-3-5-7---8-10-7-|-2-(2)---------||
 ||-1-3-5---6-8--5-|-0-(0)-----/X\-||

 


 . . . sl sl


 


 |Riff A|


 

 
 |-------------------|---------------------|---------------------------|
 |-------------------|---------------------|---------------------------|
 |-------------------|---------------------|---------------------------|[Gtr.1]
 |-----------6---6---|---------5-6-3_2-----|-----------6---6-----------|
 |-----------4---4---|---------3-4--p--4---|-----------4---4-----------|
 |-0-0-000-3-4---4---|-0-0-000-3-4-------4-|-0-0-000-3-4---4---0-0-000-|

 


 | . . ... . . . ... . . ... . . . ... |


 

 
 |-------------------|---------------------|---------------------------|
 |-------------------|---------------------|---------------------------|
 |-------------------|---------------------|---------------------------|[Gtr.2]
 |-------------------|---------------------|-2-------5-6---6---2-------|
 |-------------------|---------------------|-2-------3-4---4---2-------|
 |-------------------|---------------------|-0-------3-4---4---0-------|

 


 | |


 

 
 |-------------------|
 |-------------------|
 |-------------------|[Gtrs.1&2]
 |-6---6-3-----------|
 |-6---6-3-----------|
 |-4---4-1-----------|

 


 


 Play Riff A a total of one time.


 


 |Riff A.1|


 

 
 |------------------|--------------------|------------------|
 |------------------|--------------------|------------------|
 |-----------6---6--|-----------10-----6-|-----------6---6--|[Gtrs.1&2]
 |-----------6---6--|---------6-10-6/7-6-|-----------6---6--|
 |-----------4---4--|---------6-8--6/7-4-|-----------4---4--|
 |-0-0-000-3--------|-0-0-000-4----4/5---|-0-0-000-3--------|

 


 | . . ... . | . . ... sl . . ... .


 | |


 

 
 |------------------|
 |------------------|
 |------------------|[Gtrs.1&2]
 |---------6---6-3--|
 |---------6---6-3--|
 |-0-0-000-4---4-1--|

 


 . . ...


 


 Play Riff A.1 a total of 2 times.


 


 |Fill 1|


 

 
 ||------------------------|------------------------||
 ||------------------------|------------------------||
 ||------------------------|------------------------||[Gtrs.1&2]
 ||-2-(2)------5-3-7-8\-5--|-2-(2)----------5-3-7-8-||
 ||-2-(2)------5-3-7-8\-5--|-2-(2)----------5-3-7-8-||
 ||-0-(0)------3-1-5-6\-3--|-0-(0)------/X\-3-1-5-6-||

 


 . sl sl


 


 Play Fill 1 a total of one time.


 


 |Riff B|


 

 
 ||----------------------------|----------------------------||
 ||----------------------------|----------------------------||
 ||:---------------------------|---------------------------:||[Gtrs.1&2]
 ||:---2---2-----------5-3-7-8-|---2---2-----------5-3-7-8-:||
 ||----2---2-----------5-3-7-8-|---2---2-----------5-3-7-8--||
 ||--0-0---0-0-0-000-0-3-1-5-6-|-0-0---0-0-0-000-0-3-1-5-6--||

 


 . . . ... . . . . ... .


 


 Play Riff B a total of 6 times.


 


 |Riff C|


 

 
 |--------------------------------------|
 |--------------------------------------|
 |-----3-------3------------------------|[Gtrs.1&2]
 |-3---3---3---3------------------------|
 |-3---1---3---1------------------------|
 |-1-------1-----0000000000000000-------|

 


 | |


 

 
 |--------------------------------------|
 |--------------------------------------|
 |-----3-------3----------------10_9_10-|[Gtrs.1&2]
 |-3---3---3---3--------10_9_10---p-h---|
 |-3---1---3---1-777777---p-h-----------|
 |-1-------1----------------------------|
 |--------------------------------------|
 |--------------------------------------|
 |-----3-------3------------------------|[Gtrs.1&2]
 |-3---3---3---3------------------------|
 |-3---1---3---1------------------------|
 |-1-------1-----0000000000000000-------|

 


 | |


 

 
 |--------------------------------------|
 |--------------------------------------|
 |--------10_9_10-----------------------|[Gtrs.1&2]
 |----------p-h---10_9_10---------------|
 |------------------p-h-----------------|
 |-000000-------------------------------|

 


 


 Play Riff C a total of one time.


 


 |Riff D|


 

 
 |------------------------------|-----------------------------|
 |------------------------------|-----------------------------|
 |------------------3-----------|-----------------------------|[Gtrs.1&2]
 |-5-5---5-3-3---3--3-22-2-22-2-|-5-5---5-3-3---3-------------|
 |-5-5---5-3-3---3--1-22-2-22-2-|-5-5---5-3-3---3-1~-(1)------|
 |-3-3---3-1-1---1----00-0-00-0-|-3-3---3-1-1---1---------/X\-|

 


 | sl sl|


 

 
 |------------------------------|-----------------------------|
 |------------------------------|-----------------------------|
 |------------------3-----------|-----------------3-(3)-------|[Gtrs.1&2]
 |-5-5---5-3-3---3--3-22-2-22---|-5-5---5-3-3---3-3-(3)-------|
 |-5-5---5-3-3---3--1-22-2-22---|-5-5---5-3-3---3-1-(1)-------|
 |-3-3---3-1-1---1----00-0-00---|-3-3---3-1-1---1------X\-----|

 


 sl


 


 Play Riff D a total of one time.


 


 Repeat Riff B a total of 4 times.


 Repeat Riff C a total of one time.


 


 |Riff E|


 

 
 |-----------------------------|------------------------|
 |-----------------------------|------------------------|
 |-----------------------------|---------3--33-3---3----|[Gtrs.1&2]
 |-2-(2)-----------------------|-3-(3)---3--33-3---3----|
 |-2-(2)--------1111-----------|-1-(1)---1--11-1---1----|
 |-0-(0)---2222------1111------|-1-(1)---------------X\-|

 


 | .... .... .... sl|


 

 
 |-----------------------------|------------------------|
 |-----------------------------|------------------------|
 |-----------------------------|------------------------|[Gtrs.1&2]
 |-2-(2)-----------------------|-2-(2)------------------|
 |-2-(2)-----------------------|-2-(2)------------------|
 |-0-(0)---111111111111-11-1-1-|-0-(0)---X\-------------|

 


 ............ .. . . [Pick Slide]


 


 Play Riff E a total of one time.


 


 |Riff F|


 

 
 |-----------------------------------------|-----------------------------|
 |-----------------------------------------|-----------------------------|
 |-----------------------------------------|-----------------------------|[Gtr.1]
 |-2---------------------------------3-----|-----------------------5-4-3-|
 |-2---------------------------------3-----|-----------------3-2-1-------|
 |-0-0-0-0-0-0-0-0-0-0-0-0-0-0-0-0-0-1-----|-0-0-000-0-3-2-1-------------|

 


 | . . . . . . . . . . . . . . . . . . ... . |


 

 
 |-----------------------------------------|-----------------------------|
 |-----------------------------------------|-----------------------------|
 |-----------------------------------------|-----------------------------|[Gtr.2]
 |-2---------------------------------3-----|-----------------------------|
 |-2---------------------------------3-----|-----------------3-2-1-------|
 |-0-0-0-0-0-0-0-0-0-0-0-0-0-0-0-0-0-1-----|-0-0-000-0-3-2-1-------3-2-1-|

 


 . . . . . . . . . . . . . . . . . . ... .


 

 
 |-----------------------------------------|-----------------------------|
 |-----------------------------------------|-----------------------------|
 |---------------------------------3-------|-----------------------------|[Gtrs.1&2]
 |-2-------2---2-2-2-2-2-2-2-2-3---3-------|-----2-----------------5-4-3-|
 |-2-------2---2-2-2-2-2-2-2-2-3---1-------|-----2-----------3-2-1-------|
 |-0-0-0-0-0-0-0-0-0-0-0-0-0-0-1-----------|-0-0-0-0-0-3-2-1-------------|

 


 . . . . . . . .


 


 Play Riff F a total of 2 times.


 


 |Riff F.1|


 

 
 |-----------------------------|---------------------------|
 |---------------------------5-|---------------------------|
 |---------------------------4-|---------------------------|[Gtrs.1&2]
 |-22-2-22-2-22-2---------3--2-|---------------------------|
 |-22-2-22-2-22-2---------3----|---------------3-2-1-------|
 |-00-0-00-0-00-0-0-0-000-1----|-0-0-000-3-2-1-------2-1-0-|

 


 . . ... . . ...


 


 

 
 |-----------------------------|---------------------------|
 |---------------------------5-|---------------------------|
 |---------------------------4-|---------------------------|[Gtr.1]
 |-22-2-22-2-22-2---------3--2-|---------------------5-4-3-|
 |-22-2-22-2-22-2---------3----|---------------3-2-1-------|
 |-00-0-00-0-00-0-0-0-000-1----|-0-0-000-3-2-1-------------|

 


 | . . ... . . ... |


 

 
 |-----------------------------|---------------------------|
 |---------------------------5-|---------------------------|
 |---------------------------4-|---------------------------|[Gtr.2]
 |-22-2-22-2-22-2---------3--2-|---------------------------|
 |-22-2-22-2-22-2---------3----|---------------3-2-1-------|
 |-00-0-00-0-00-0-0-0-000-1----|-0-0-000-3-2-1-------3-2-1-|

 


 . . ... . . ...


 


 Play Riff F.1 a total of one time.


 


 |Riff D.1|


 

 
 |------------------------------|------------------------------|
 |------------------------------|------------------------------|
 |------------------3-----------|------------------------------|[Gtrs.1&2]
 |-5-5---5-3-3---3--3-22-2-22-2-|-5-5---5-3-3---3-8~-(8)-------|
 |-5-5---5-3-3---3--1-22-2-22-2-|-5-5---5-3-3------------------|
 |-3-3---3-1-1---1----00-0-00-0-|-3-3---3-1-1---1-6~-(6)---/X\-|

 


 | sl sl|


 

 
 |------------------------------|------------------------------|
 |------------------------------|------------------------------|
 |------------------3-----------|-----------------3-(3)--------|[Gtrs.1&2]
 |-5-5---5-3-3---3--3-22-2-22---|-5-5---5-3-3---3-3-(3)--------|
 |-5-5---5-3-3---3--1-22-2-22---|-5-5---5-3-3---3-1-(1)--------|
 |-3-3---3-1-1---1----00-0-00---|-3-3---3-1-1---1-----------X\-|

 


 sl


 


 Play Riff D.1 a total of one time.


 


 Repeat Riff B a total of 2.5 times.


 


 |Fill 2|


 

 
 ||---------------------------||
 ||---------------------------||
 ||---------------------------||[Gtrs.1&2]
 ||---2---2-----------5-3-7-8-||
 ||---2---2-----------5-3-7-8-||
 ||-0-0---0-0-0-000-0-3-1-5-6-||

 


 . . . ... . . . . .


 


 Play Fill 2 a total of one time.


 


 Repeat Riff B a total of 2 times.


 


 |Riff C.1|


 

 
 |--------------------------------------|
 |--------------------------------------|
 |-----3-------3------------------------|[Gtrs.1&2]
 |-3---3---3---3------------------------|
 |-3---1---3---1------------------------|
 |-1-------1-----0000000000000000-------|

 


 | |


 

 
 |--------------------------------------|
 |--------------------------------------|
 |-----3-------3----------------10_9_10-|[Gtrs.1&2]
 |-3---3---3---3--------10_9_10---p-h---|
 |-3---1---3---1-777777---p-h-----------|
 |-1-------1----------------------------|
 |--------------------------------------|
 |--------------------------------------|
 |-----3-------3------------------------|[Gtrs.1&2]
 |-3---3---3---3------------------------|
 |-3---1---3---1------------------------|
 |-1-------1-----0000000000000000-------|

 


 | |


 

 
 |--------------------------------------|
 |--------------------------------------|
 |-----3-------3------------------------|[Gtrs.1&2]
 |-3---3---3---3------------------2-----|
 |-3---1---3---1------------------2-----|
 |-1-------1-----0000000000000000-0-----|


Important: The song above is NOT stored on the Chordie server. The original song is hosted at www.xguitar.com. Chordie works as a search engine and provides on-the-fly formatting. Chordie does not index songs against artists'/composers' will. To remove this song please click here.

This song is displayed as text-only. Transposing and tuning is only available for chordpro-songs.
Rate #1 of 2 versions

Login - add to songbook

SHARE PAGE  




You need to log in to post comments