Guitar Tabs, Chords and Lyrics
Server problems seems to be fixed. Chordie has been experiencing problems with songs disappearing. These issues now seems to be fixed, but still verifying the fix. If you find anything strange, please email admin@chordie.com.


Eyemaster   Entombed

 
 [----------------------------------------------------------------------]
 [----------------------------------------------------------------------]
 [----------------------------------------------------------------------]
 [---7--8------------------------------------7--8-----------------------]
 [---5--6-------7--8--7-------2-----2--2-----5--6--------7--8--7-----2--]
 [-----------0--5--6--5-------0--0--0--0--------------0--5--6--5-----0--]
 pm-----] pm pm-----]

 


 


 Riff 2


 

 
 [----------------------------------------------------------------------]
 [----------------------------------------------------------------------]
 [----------------------------------------------------------------------]
 [---7--8---5-/-7-h-8--7------9-----9--9-----7--8---5-/-7-h-8--7----9---]
 [---5--6---------------------7-----7--7-----5--6-------------------7---]
 [----------------------------0--0--0--0----------------------------0---]

 


 pm


 


 Riff 3


 

 
 [----------------------------------------------------------------------]
 [----------------------------------------------------------------------]
 [----------------------------------------------------------------------]
 [---7--8------------------------------------7--8-----------------------]
 [---5--6------7--8--7-------2-----2--2------5--6----------7--8--7---2--]
 [---5--6---0--5--6--5-------0--0--0--0------5--6-------0--5--6--5---0--]
 pm-----] pm pm-----]

 


 


 Riff 4


 

 
 [-------------------------------------]
 [-------------------------------------]
 [-------------------------------------]
 [-------------------------------9-----]
 [---2---5---7---2---5---7---5---7-----]
 [---0---3---5---0---3---5---3---0-----]

 


 


 Riff


 [5]  

 
 [---------------------------------------------------------------------------------]
 [--------------------------------------------------------3--5---------------------]
 [------------------------------------------------4-3------------------------------]
 [-------2--2-/-3----2---------------------------------3---------------------------]
 [--2-5------------5----3-3-3--3-3-3--3-3---2--5-----------------3-3-3--3-3-3--3-3-]
 [----------------------1-1-1--1-1-1--1-1------------------------1-1-1--1-1-1--1-1-]

 


 pm-] pm-] pm pm-]


 pm-] pm


 


 Riff 6


 

 
 [----------------------------------------------------------------------]
 [----------------------------------------------------------------------]
 [----------------------------------------------------------------------]
 [---------9-9-9--10-10-----9-9--10-10-------7-7-7--8-8-----7-7-7---8-8-]
 [--7-7-7---------------7-7------------5-5-5------------5-5-------------]
 [----------------------------------------------------------------------]

 


 


 What does it all mean?: (ph) pinch harmonic, /slide (first note picked


 only), h hammer on, pm palm mute.


 


 Get your shit together:


 


 Riff 1x2


 Riff 2x2


 Riff 3x2


 Riff 4x12


 Riff 5x2


 Riff 6x4


 Riff 4x8


 Riff 5x2


 Riff 4x22(solo)


 Riff 5x2


 


 Ends on B5/F# and dives with whammy bar


 


 

 
 [------------------]
 [------------------]
 [------------------]
 [---4--------------]
 [---2--------------]
 [---2--------------]


Important: The song above is NOT stored on the Chordie server. The original song is hosted at www.xguitar.com. Chordie works as a search engine and provides on-the-fly formatting. Chordie does not index songs against artists'/composers' will. To remove this song please click here.

This song is displayed as text-only. Transposing and tuning is only available for chordpro-songs.
Rate #2 of 4 versions

Jango Player

Login - add to songbook

SHARE PAGE  




You need to log in to post comments