Guitar Tabs, Chords and Lyrics
Server problems seems to be fixed. Chordie has been experiencing problems with songs disappearing. These issues now seems to be fixed, but still verifying the fix. If you find anything strange, please email admin@chordie.com.


Before You Accuse Me  Eric Clapton

As recorded by Eric Clapton unplugged
[E7]  
 
 E||--------------------------3/|--4--4--4--4----4----------4----4--|
 B||--------------------------2/|--3--3--3--3----3----------3----3--|
 G||--------------------------3/|--4--------4-----------------------|
 D||------------------------x---|-----------------------------------|
 A||------------------------x---|------------------------0----------|
 E||------------------------x---|-------------------0----0----------|

E7 Am6/E E7
 
 --3----3-----3-----2----2----------|----------0--3~-0--3--0-----0-----------|
 --2----2-----2-----1----1----------|-------------------3--0--3--------------|
 --3----3-----------2------------x--|--0h1p0h1----------------------2---0h1--|
 -----------------------------------|-------------------------------------2--|
 ---------------------------x-------|----------------------------------------|
 ----------0-----0----------0-------|----------------------------------------|

[B7] [E5] [E6] [E5] [E7]  
 
 --0----------------------------0-3/|--4----4-------------------------|
 --0-------0----0----0----------0-2/|--3----3-------------------0-----|
 -----------------------2--2----0-3/|--4----4-------------------0-----|
 -----------------------------------|---------------------------------|
 -------2---------------------------|----------------2----4--------0--|
 -----------------------------------|----------------0----0--0--------|

[A5] [A6] [A5] [A6] [E5] [E6] [E5] [E6]  
 
 -------------------------------0--|-----------------------------------|
 -------------------------------0--|-----------------------------------|
 -------2-----------------------0--|-----------------------------2-----|
 --2----2--4-------2-------4-------|-----------------------------2-----|
 --0----0--0----0--0----0--0-------|--2-------4-------2----------------|
 ----------------------------------|--0----0--0----0--0----0--0-----0--|

[E5] [E6] [E5] [E6] [A5] [A6] [A5]  
 
 ----------0--------------------------|-------------------------------3~-|
 ----------0--------------------------|-------------------------------2~-|
 --0h1p0h1----------------------------|-------2--------------------------|
 -------------------------------------|--2----2--4----4--2-------2-------|
 -------------4-------2-------4-------|--0----0--0----0--0----0--0-------|
 -------------0----0--0----0--0----0--|----------------------------------|

[A5] [A6] [A5] [A7] [E5] [E6] [E5] [E6]  
 
 --0--------------------------------|---------------0-------0-----------|
 --0----2------------------------2--|----------0----0--3~---0-----------|
 -------2------------------------2--|----------1---------------2---0h1--|
 ----------2-------4-------2--0-----|--x-----------------------------2--|
 -------0--0----0--0----0--0--------|--x-------2------------------------|
 -----------------------------------|--x----0---------------------------|

[E] [E6] [E5] [B7]  
 
 --0----0--------------0-----0------|------------2-----------------------|
 --0----0--3--2--0-----0------------|---------0--------0----0------x-----|
 --1----------------2---------------|---------------2--2------2----------|
 -----------------------------------|------------------1-----------------|
 -----------------------------------|--2---------------2--------2-----0--|
 -------------------------0---------|------------------------------------|

[A5] [A6] [A7] [A5] [E7]  
 
 ----------------------------------|-------0-3/4--0--4--0-----0-----------|
 -------------------------------0--|-------0-2/3--3--3-----3--0-----------|
 --2----2-----------------------2--|---------3/4-----------4-----2--0-----|
 --2----2--4----2--2-------2-------|-----------------------------------2--|
 -------0--0----0--0----x--0-------|--------------------------------------|
 ----------------------------------|--0-----------------------------------|

[E] [B7] [E5] [E6] [E5] [E6]  
 
 --0--------------------------------|------------------------------------|
 --0-------0----0-----0-----0-------|------------------------------------|
 --1---------------2-------------0--|-----------------------------0------|
 ------------------1-----1-------0--|-------------------------------0----|
 -------2----------2-----2----------|--2-------4----4--2-------4------0--|
 -----------------------------------|--0----0--0----0--0----0--0---------|

[A5] [A6] [A5] [A6] [E5] [E6] [E5] [E13]  
 
 -------------------------------0--|-----------------------------------|
 -------------------------------0--|-----------------------------------|
 -------2--------------------------|-----------------------------2-----|
 --2----2--4----4--2-------4-------|--------------------------x--2-----|
 --0-------0----0--0----0--0-------|--2----2--4----4--2----0--------0--|
 ----------------------------------|--0----0--0----0--0----0-----------|

[E9] [E6] [E5] [E6] [A5] [A6] [A5] [A6]  
 
 ----------0--------------------------|----------------------------------|
 --0-------0--------------------------|----------------------------------|
 --0h1p0h1----------------------------|----------------------------------|
 ----------------------------------0--|--2-------4----4--2----2--4----4--|
 -------------4----4--2----2--4----0--|--0----0--0----0--0----0--0----0--|
 -------------0----0--0----0--0-------|----------------------------------|

[A5] [A6] [A5] [A6] [E] [E6] [E5] [E6]  
 
 ----------------------------------|--0----0/-4--0--4--0-----0-------0--|
 -------------------------------0--|--0----0/-3--3--------0----------0--|
 -----------------------2-------0h-|--1-------4-----------------2-------|
 --2-------4----4--2-------4-------|--2---------------------------------|
 --0----0--0----0--0-------0-------|------------------------------------|
 ----------------------------------|------------------------------------|

[E] [E6] [E5] [B7]  
 
 ----------0-----------------0--0-------|-------2--------2-------------------|
 --0-------0--3--2--0--------0-------0--|-------0-----------0-----0--0-------|
 --0h1p0h1-------------2---0------------|-------2-----2---------2----2-------|
 ---------------------------------------|----------------------------1-------|
 ---------------------------------------|--2-------2-----------------2----0--|
 ---------------------------------------|------------------------------------|

[A5] [A6] [A5] [A6] [E7]  
 
 -----------------------------------|-------0/-4--0--4--0-----------------|
 --2----2---------------------------|-------0/-3--3--3-----0--------------|
 --2----2----------------------0h1--|----------4-----4-----------2--0h-1--|
 --2-------4----2--2-------4--------|-------------------------------------|
 --0-------0----0--0----0--0--------|-------------------------------------|
 -----------------------------------|--0----------------------0--------0--|

[B7] [E5] [E6] [E5] [E6]  
 
 --0-------------2-------------------|----------------------------------|
 --0-------0-----0-----------0-------|----------------------------------|
 --1-------2-----2-----2-----2-------|----------------------------------|
 -------------------1----------------|----------------------------------|
 -------2-----------2-----2----------|--2----2--4----4--2-------4----0--|
 -------------2-------------------0--|--0----0--0----0--0----0--0----0--|

[A5] [A6] [A5] [A7] [E5] [E6] [E5] [E6]  
 
 -------------------------------0--|-------0/-4--0--4--4--4--4--4----4-3/|
 -------------------------------0--|-------0/-3--3--3--3--3--3--3----3-2/|
 -------2--------------------------|----------4-----4--4-----4--4----4-3/|
 --2----2--4----4--2----2--4-------|-------------------------------------|
 --0----0--0----0--0----0----------|--2----------------------------------|
 ----------------------------------|--0----------------------------------|

[E5] [E6] [E5] [E7] [A5] [A6] [A5] [A6]  
 
 --4--4--4--3----3--4----4----------|----------------------------------|
 --3--3--3--2----2--3----3----------|----------------------------------|
 --4-----4--3----3--4----4----------|-----------------------2--2-------|
 ---------------------------0-------|--2----2--4----4--2----2--4-------|
 ---------------------------0-------|--0----0--0----0--0----0--0----0--|
 ---------------------------0----0--|----------------------------------|

[A5] [A6] [A5] [A6] [E5] [E6] [E5]  
 
 -------------------------------0--|-------0/-4--0--4--0-----------------|
 -------------------------------0--|-------0/-3--3--3-----3--------------|
 ----------------------------------|----------4-----4-----4--4--2--0h-1--|
 --2----2--4----4--2-------4-------|-------------------------------------|
 --0----0--0----0--0----0--0-------|--2----------------------------------|
 ----------------------------------|--0-------------------------------0--|

[E] [E6] [E5] [B7]  
 
 --0----0-----------------0---------|----------2---2--------------------|
 --0----0--3--2--0--------0---------|-------0--0--------0---------------|
 --1----------------2p-0h-1---------|----------2-----2-------2----------|
 -----------------------------------|-----------------------------------|
 -----------------------------------|--2----------------2-------2----0--|
 ----------------------------0------|-----------------------------------|

[A5] [A6] [A5] [A6] [E7]  
 
 --------------------------------|-------0/-4--0--4--0----------------|
 --------------------------------|-------0/-3--3--3-------------------|
 --------------------------------|----------4-----4-------4--2--0h-1--|
 --2----2--4-------2------4------|------------------------------------|
 --0----0--0----0--0------0------|------------------------------------|
 --------------------------------|--0------------------------------0--|

[B7]  
 
 --0----------------------------0-9/-|
 --0-------0----0----0-----0----0-10/|
 --1-----------------------2----0----|
 -----------------------1------------|
 -------2---------------2------------|
 ------------------------------------|

[E5] [E6] [E5] [E7]  
 
 --10--10--10--10--10--10--10--10--10--9-----9---|
 --12--12--12--12--12--12--12--12--12--10----10--|
 ------------------------------------------------|
 ------------------------------------------------|
 ------------------------------------------------|
 ------------------------------------------------|

[A5] [A6] [A5] [A6]  
 
 --7~---0-----------------------0/-|
 --8~---0-----------------------0/-|
 ----------------------------------|
 ----------4----4--2----2--4-------|
 ----------0----0--0----0--0-------|
 ----------------------------------|

[E5] [E6] [E5] [E6]  
 
 --10--10--10--10--10--10--10--10--10--10--10--10-9/-|
 --12--12--12--12--12--12--12--12--12--12--12--12-10/|
 ----------------------------------------------------|
 ----------------------------------------------------|
 ----------------------------------------------------|
 ----------------------------------------------------|

[E] [E6] [E5] [E7]  
 
 --10--10--10--9---9---9---7----0----------|
 --12--12--12--10--10--10--8----0----------|
 ------------------------------------------|
 ---------------------------------------2--|
 ----------------------------------0----0--|
 ----------------------------------0-------|

[A5] [A6] [A5] [A7] [A5] [A6] [A5]  
 
 --------------------7p-6--5----------|--7--6--5-----5--------------0----0--|
 -----------5-----5-----------8~---5--|-----------8b----8b-5-----5--5-------|
 --2---4/6-----6-------------------0--|-----------------------6-------------|
 --2----------------------------------|-------------------------------------|
 -------------------------------------|-------------------------------------|
 -------------------------------------|-------------------------------------|

[E5] [E6] [E5] [E6] [E] [E6] [E5]  
 
 ------3/4-0h4--4--4--4----4-----------|--4----4--3--3--4-------4-----------|
 ------2/3---3--3--3--3----3-----------|--3----3--2-----3-------------------|
 ------3/4---4--4--4--4----4-----2-----|--4----4--3-----4--------------4/6--|
 --------------------------------------|---------------------------x--------|
 --------------------------------------|-------------------0-------x--------|
 --0--------------------------0-----0--|-------------------0-------x--------|

[B7] [A7]  
 
 -----0--0--9--8--7--------0-----0------|----------7--6--5-----5-------------|
 --7-----7-----------10~---------0------|--5----5-----------8~----8b-5-------|
 -----------------------------0----2/6--|------------------------------------|
 ---------------------------------------|-------------------------------0----|
 ---------------------------------------|------------------------------------|
 ---------------------------------------|------------------------------------|

[E7] [B7]  
 
 --0----0--4--0--4--0-----------------|--0--------------------------------|
 -------0--3--3--3--3--3--------------|--0-------0----0----0-----------0--|
 ----------4-----4--------4\-2--0-----|--------------------------2---0h1--|
 ----------------------------------2--|-----------------------1-----------|
 -------------------------------------|-------2---------------2-----------|
 -------------------------------------|-----------------------------------|

[E5] [E6] [E5] [E6] [A5] [A6] [A5] [A6]  
 
 ----------------------------------|----------------------------------|
 ----------------------------------|----------------------------------|
 ----------------------------------|-------------------------------0h-|
 -------2--------------------------|--2----2--4----4--2----2--4-------|
 -------2--4----4--2----2----------|--0----0--0----0--0----0--0-------|
 --0----0--0-------0----0--0----0--|----------------------------------|

[E5] [E6] [E5] [E6] [E] [E6] [E5] [E6]  
 
 ----------4--0--4--0-----------------|--0-------------------------0----------|
 --0----0/-3-----3-----3--------------|-----3--2--0-----0----------0----------|
 --1-------4-----4--------4--2--0-----|--------------2-----0h1p0h1------------|
 ----------------------------------2--|------------------------------------2--|
 -------------------------------------|-------------------------------0----0--|
 -------------------------------------|--------------------0----------0-------|

[A5] [A6] [A5] [A6] [A5] [A6] [A5]  
 
 ----------------------------------|----------------------------------|
 ----------------------------------|----------------------------------|
 ----------------------------------|----------------------------------|
 --2-------4----4--2-------4-------|--2-------4----4--4----2--2----2--|
 --0----0--0----0--0----0--0----0--|--0----0--0----0--0----0--0-------|
 ----------------------------------|----------------------------------|

[E5] [E6] [E5] [E6] [E] [E6] [E5]  
 
 -------0/-4--0--4--0-----0-----------|--0-----------------------0----------|
 -------0/-3--3--3--3-----0-----------|--0--3--2--0-----0---0----0-------0--|
 ----------4-----4-----4--4\-2--0-----|--0-----------2----0h1------------2--|
 ----------------------------------2--|---------------------2------------1--|
 --2----------------------------------|-----------------------------x----2--|
 --0----------------------------------|-----------------------------x-------|

[B7] [A5] [A6] [A5] [A6]  
 
 --------2--------------------------|-----------------------------------|
 --0--------0-------0----0--0-------|--------------------------------0--|
 -----2--2-------2-------2--2-------|--2----2----------------------0h1--|
 --------------------------------2--|--2----2--4----2--2-------4-----2--|
 ---------------------------2----0--|--0----0--0----0--0----0--0--------|
 -----------------------------------|-----------------------------------|

[E] [B7]  
 
 -------0------------------------------|--0----------------------------------|
 -------0------------------------------|--0----------0----0----------0-------|
 --------------4--------3--------2-----|--0h1p0h1--------------2-----2-------|
 --------------------------------------|-------------------------------------|
 ---------4/5-----5--4-----4--3-----3--|--2-------2---------------2----------|
 --0-----------------------------------|----------------------------------0--|

[E5] [E6] [E5] [E6] [A5] [A6] [A5] [A7]  
 
 ----------------------------------|-------------------------------0--|
 ----------------------------------|-------------------------------0--|
 ----------------------------------|--2----2--------------------------|
 ----------------------------------|--2----2--4----4--2----2--5-------|
 --2----2--4----4--2-------4----0--|--0----0--0----0--0----0--0-------|
 --0----0--0----0--0----0--0----0--|----------------------------------|

[E5] [E6] [E5] [E] [E6] [E5] [E7]  
 
 -------0/-4--------4--4--4--4--4--4-3/|--4--4--4--3--3--3--4-----4----------|
 -------0/-3--3--3--3--3--3--3--3--3-2/|--3--3--3--2--2--2--3--3--3----------|
 ----------4--4--4--4--4--4--4--4--4-3/|--4--4--4--3--3--3--4-----4----------|
 --------------------------------------|-------------------------------------|
 --------------------------------------|----------------------------------0--|
 --0-----------------------------------|-----------------------------0----0--|

[A5] [A6] [A5] [A6] [A5] [A6] [A5] [A6]  
 
 ----------------------------------|--------------------------------0--|
 ----------------------------------|--------------------------------0--|
 ----------------------------------|-----------------------------x-----|
 --2----2--4----4--2----2--4----2--|--2----2--4-------2-------4--------|
 --0----0--0----0--0----0--0----0--|--0----0--0----0--0----0--0--------|
 ----------------------------------|-----------------------------------|

[E5] [E6] [E5] [E6] [E] [E6] [E5]  
 
 -------0--3--2--0--------------0--0--|--0-------0--------------------0------|
 -------0--0--2--0-----2--0-----0--0--|--0-------0--3--2--0-----------0------|
 -------0--0--------2--------2-----2--|--0h1p0h1-------------2--0h-1---------|
 -------------------------------------|-------------------------2------------|
 --x----------------------------------|--------------------------------------|
 --x----------------------------------|----------------------------0---------|

[B7] [A5] [A6] [A5] [A6]  
 
 ------------------------------------|---------------------------------|
 --------0--0-------0---0------------|---------------------------------|
 ----------------2--------2----------|---------------------------------|
 -----1---------------------------2--|--2----2--4-------2------4-------|
 --2--------2-------2--------2----0--|--0----0--0----0--0------0-------|
 ------------------------------------|------------------------------0--|

[E] [B7]  
 
 -------0/-4--0--4--0------------------|--0------------------------0----0-9/-|
 -------0/-3--3--3--3--3---------------|--0-------0----0-----------0----0-10/|
 ----------4-----4--------4--2--0----0h|--1------------------2----------0----|
 ----------------------------------2---|-------------------------------------|
 --2-------------------------------2---|-------2----------2-----2------------|
 --0-----------------------------------|-------------------------------------|

[E5] [E6] [E5] [E7]  
 
 --10--10--10--10--10--10--10--10--10--9---9---9---|
 --12--12--12--12--12--12--12--12--12--10--10--10--|
 --------------------------------------------------|
 --------------------------------------------------|
 --------------------------------------------------|
 --------------------------------------------------|

[A5] [A6] [A5] [A7]  
 
 --7~---------------------------0/-|
 --8~---------------------------0/-|
 ----------------------------------|
 -------2--4-------2----2--4-------|
 -------0--0----0--0----0--0-------|
 ----------------------------------|

[E5] [E6] [E5] [E6]  
 
 --10--10--10--10--10--10--10--10--10--10--10--10--||
 --12------12--12--12--12--12--12--12--12--12--12--||
 --------------------------------------------------||
 --------------------------------------------------||
 --------------------------------------------------||
 --------------------------------------------------||

***** `&' *********************************************
** # **
** # Any corrections, questions, comments, **
** _#_ etc. welcome! **
** ( # ) **
** / O \ Kyle Barton (guitarkyle@yahoo.com) **
** ( === ) http://www.kylebarton.com **
**** `---' ********************************************

Important: The song above is NOT stored on the Chordie server. The original song is hosted at www.xguitar.com. Chordie works as a search engine and provides on-the-fly formatting. Chordie does not index songs against artists'/composers' will. To remove this song please click here.

Text color:
Chord color:
Chord grids: 
Font size:    
Page size: 

A5 A6 A7 B7 E E13 E5 E6 E7 E9
Rate #2 of 7 versions

Login - add to songbook

SHARE PAGE  




You need to log in to post comments