Guitar Tabs, Chords and Lyrics
Major upgrade!! After one year development the new version of Chordie is now online! Please give feedback.


Annabella's Song  Everclear

As recorded by Everclear on "SFAAM #1: Learning How to Smile"
Tabbed by Jason Pan (balaka@alphalink.com.au)
NOTE:
This song is performed almost exclusively by a symphony orchestra, which
is almost impossible to tab properly and/or make it sound half decent.
These chords are from the original version of the song - found on
the Heroin Girl single - and which can be used to play along. I've
attempted to tab bits here and there, but basically play with the chords.
Symphony Orchestra arranged for guitar!
 
 e|-----------------------------------------------|
 B|----0h1-3-0--------0---------------------------|
 G|-0h2-------------2---2-------------------------|
 D|-----------------------2-5-4-0-----------------|
 A|-----------------------------------------------|
 E|-----------------------------------------------| 

| |
 
 e|-----------------------------7-10-8h10p8h10p8--|
 B|-----------------------------------------------|
 G|-----------------------------------------------|
 D|----------5-7----------------------------------|
 A|--------------5--------------------------------|
 E|-----------------------------------------------|
 e|-----------------------------------------------|
 B|-----------------------------------------------|
 G|-----------------------------------------------|
 D|-----------------------------------------------|
 A|--3-5-3-0--2-----2----2-0----------------------|
 E|--------------3-----3-----3-2------------------|

| |
 
 e|-----------7-----7----7------------------------|
 B|--------------8-----8--------------------------|
 G|-----------------------------------------------|
 D|-----------------------------------------------|
 A|-----------------------------------------------|
 E|-----------------------------------------------|

Guitar
[G] [C9] [G/A] [C9]  
 
 e|-------3-----------3-----------3-----------3----| x2
 B|----------3-----------3-----------3-----------3-|
 G|----0-----------0-----------0-----------0-------|
 D|------------------------------------------------|
 A|-------------3-----------0-----------3----------|
 E|-3----------------------------------------------|

Guitar
[G] [C9] [G/A] [C9]  
 
 e|-------3-----------3-----------3-----------3----| x3
 B|----------3-----------3-----------3-----------3-|
 G|----0-----------0-----------0-----------0-------|
 D|------------------------------------------------|
 A|-------------3-----------0-----------3----------|
 E|-3----------------------------------------------|

|Symphony/Xylophone |
 
 e|-------15-12-------------------15-12------------|
 B|----15------15-12-12--------15------15-12-12----|
 G|-12------------------14--12------------------14-|
 D|------------------------------------------------|
 A|------------------------------------------------|
 E|------------------------------------------------|

Guitar
[G/A] [G/B] [C9]  
 
 e|-------3-----------3--3-------------------------|
 B|----------3--------3--3-------------------------|
 G|----0--------0-----0--0-------------------------|
 D|-------------------0--2-------------------------|
 A|-0--------------0--2--3-------------------------|
 E|------------------------------------------------|

|Symphony/Xylophone |
 
 e|-------15-12-------------------15-12------------|
 B|----15------15-12-12--------15------15-12-12----|
 G|-12------------------14--12------------------14-|
 D|------------------------------------------------|
 A|------------------------------------------------|
 E|------------------------------------------------|

pm......................
[Em]See you roll your eyes you know it makes me [G]smile
Yes you are like the sun to me, All bright as liquid fire[Em]
I feel so powerless, hold you up above the world
[C]Yeah you are quite a lot of [D]trouble
[D]For such a pretty little girl
[G] [C] [A] [C]  
[G]Such [C]a pret[A]ty li[C]ttle girl
[Em]I know I'm never home I'm always miles and miles away[G]
Here I'm runnin' out of time, say the things I need[G/F#] to s[Em]ay
[Em]I call you on the telephone, you will not talk to me
[C]Yeah you just don't [D]understand
[D]You are my everything
[G] [C9] [G/A] [C9]  
 
 e|-------3-----------3-----------3-----------3----| x4
 B|----------3-----------3-----------3-----------3-|
 G|----0-----------0-----------0-----------0-------|
 D|------------------------------------------------|
 A|-------------3-----------0-----------3----------|
 E|-3----------------------------------------------|

Anna, Anna
Tell me what you want Tell me what you need
Anna, You are never alone
You are never alone...
[Em] Hey-eay-eay [G] Hey-eay-eay
[Em] Hey Yey-yey [C]Yeah Y[D]eah
[G] [C9] [G/A] [C9]  
 
 e|-------3-----------3-----------3-----------3----| x4
 B|----------3-----------3-----------3-----------3-|
 G|----0-----------0-----------0-----------0-------|
 D|------------------------------------------------|
 A|-------------3-----------0-----------3----------|
 E|-3----------------------------------------------|

Anna, Anna
Tell me what you want Tell me what you need
Anna, You are never alone
You are never alone...
[Em]I like to watch you play
[Em]When you don't know I'm there
[G]I watch you in your sleep at night
[G]Reach out and touch your ha[G/F#]ir
[Em]I wanna make this world
[Em]Be just how you want it to be
[C]Yeah you just don't understand[D]
[D]You are everything
[G]Anna, [C] [A]Anna[C]
[G]Tell me [C]what you want
[A]Baby, te[C]ll me what you need
[G]Anna, [C]
[A]You are ne[C]ver alone
[G] [C9] [G/A] [C9]  
 
 e|-------3-----------3-----------3-----------3----| x1
 B|----------3-----------3-----------3-----------3-|
 G|----0-----------0-----------0-----------0-------|
 D|------------------------------------------------|
 A|-------------3-----------0-----------3----------|
 E|-3----------------------------------------------|

|Symphony/Xylophone |
 
 e|-------15-12-------------------15-12------------|
 B|----15------15-12-12--------15------15-12-12----|
 G|-12------------------14--12------------------14-|
 D|------------------------------------------------|
 A|------------------------------------------------|
 E|------------------------------------------------|

You are never alone
[G] [C9] [G/A] [C9]  
 
 e|-------3-----------3-----------3-----------3----| x3
 B|----------3-----------3-----------3-----------3-|
 G|----0-----------0-----------0-----------0-------|
 D|------------------------------------------------|
 A|-------------3-----------0-----------3----------|
 E|-3----------------------------------------------|

|Symphony/Xylophone |
 
 e|-------15-12-------------------15-12------------|
 B|----15-------15-12-12-------15------15-12-12----|
 G|-12-------------------14-12------------------14-|
 D|------------------------------------------------|
 A|------------------------------------------------|
 E|------------------------------------------------|

| Symphony |
 
 e|-10-7--10-7--10-7--10-7--10-7--10-7-10-7--10-7--|
 B|------------------------------------------------|
 G|------------------------------------------------|
 D|------------------------------------------------|
 A|------------------------------------------------|
 E|------------------------------------------------|

Anna, Anna
Tell me what you want Tell me what you need
Anna, Anna You are never alone
[G]Anna, [C]
Y[A]ou are n[C]ever alone...
Guitar
[G] [C9] [G/A] [C9]  
 
 e|-------3-----------3-----------3-----------3----| x4
 B|----------3-----------3-----------3-----------3-|
 G|----0-----------0-----------0-----------0-------|
 D|------------------------------------------------|
 A|-------------3-----------0-----------3----------|
 E|-3----------------------------------------------|

Anna, You are never alone..... x4
(Strum a G chord to end)
JASON'S EVERCLEAR TABS - http://members.tripod.com/~panec/

Important: The song above is NOT stored on the Chordie server. The original song is hosted at www.xguitar.com. Chordie works as a search engine and provides on-the-fly formatting. Chordie does not index songs against artists'/composers' will. To remove this song please click here.

Text color:
Chord color:
Chord grids: 
Font size:    
Page size: 

A C D Em G G/B G/F#
Rate #2 of 2 versions

Login - add to songbook

SHARE PAGE  



You need to log in to post comments