Guitar Tabs, Chords and Lyrics
Major upgrade!! After one year development the new version of Chordie is now online! Please give feedback.


Brown Eyed Girl  Everclear

As recorded by Everclear on "SFAAM #1: Learning How to Smile."
Tabbed by Jason Pan (balaka@alphalink.com.au)
(No guitar)
Sha la la la la la la la la la la la
Sha la la la la la la la la la la la
[G] [C] [G] [D]  
 
 e|---------3---------------3---------------3---------------3-2-0---|
 B|-----3-----3---3-----1-----1---1-----3-----3---3-----3---------3-|
 G|---0---0-----0-----0---0-----0-----0---0-----0-----2---2---------|
 D|-------------------------------------------------0---------------|
 A|-----------------3-----------------------------------------------|
 E|-3-------------------------------3-------------------------------|

| |
|bass |
 
 G|-----------------------------------------------------------------|
 D|-------------------0-2-0-------------------------0---4-5---------|
 A|---0-2-0---------3-------3---------0-2-0-------------------------|
 E|-3-------3-----------------------3-------3-----------------------|

I hear a song makes me think about a girl I used to know
I sing along when I hear it on the radio now
[G] [C] [G] [D]  
 
 e|--------------------------------------3--------------------------|
 B|--------------------------------------3--------------------------|
 G|------------------------------------4---4------------------------|
 D|-----------------------------------------------------------------|
 A|-----------------------------------------------------------------|
 E|---------------------------------3-------------------------------|

| |
|bass |
 
 G|-----------------------------------------------------------------|
 D|-------------------------------------------------0---------------|
 A|-----------------3-----------------------------------------------|
 E|-3-------------------------------3-------------------------------|

Hey, now here we go days when the rain came
[G] [C] [G] [D]  
 
 e|-----3--------------------------------3--------------------------|
 B|-----3--------------------------------3--------------------------|
 G|---4---4----------------------------4---4------------------------|
 D|-----------------------------------------------------------------|
 A|-----------------------------------------------------------------|
 E|-3-------------------------------3-------------------------------|

| |
|bass |
 
 G|-----------------------------------------------------------------|
 D|-------------------------------------------------0---------------|
 A|-----------------3-----------------------------------------------|
 E|-3-------------------------------3-------------------0-0h2-------|

Way down in the hollow yeah, playing a new game
[G] [C] [G] [D]  
 
 e|---------3---------------8---------------3---------------10-------|
 B|-----3-----3---3-----8-----8---8-----3-----3---3-----10----11--11-|
 G|---4---4-----4-----9---9-----9-----4---4-----4-----11--11----11---|
 D|------------------------------------------------------------------|
 A|------------------------------------------------------------------|
 E|-3---------------8---------------3---------------10---------------|

| |
|bass |
 
 G|---------------------------------0-0-0-0--------------------------|
 D|-------------------------0-2-4-------------------0-0-0-0----------|
 A|-------------0-2-3-3-3--------------------2--3--------------------|
 E|-3---3---3------------------------------------------------0-0-2---|

Laughing, and a running, hey, hey Skipping and a jumping
in the misty morning fog with our hearts a thumpin'
[C] [B] [D] [G] [E]  
 
 e|-----------------------------------------------|
 B|-----------------------------------------------|
 G|-5----4-----7------------------------9---------|
 D|-5----4-----7----------------5-------9---------|
 A|-3----2-----5----------------5-------7---------|
 E|-----------------------------3-----------------|

| |
 
 G|-----------------------------------------------|
 D|-------------------------------------2--0-2-0--|
 A|-3----2-----5----------------------3-----------|
 E|---------------------3-5-3-2-3-----------------|

and you, my brown eyed girl
[C] [B] [D] [G]  
 
 e|-----------------------------------------------|
 B|-----------------------------------------------|
 G|-5----4-----7----------------------------------|
 D|-5----4-----7----------------5-----------------|
 A|-3----2-----5----------------5-----------------|
 E|-----------------------------3-----------------|

| |
 
 G|-----------------------------------------------|
 D|-----------------------------------------------|
 A|-3----2-----5----------------------------------|
 E|---------------------3-5-3-2-3-----------------|

You, my brown eyed girl
[D]  
 
 e|--------5-------5-------5-------5-------5------|
 B|------7-------7-------7-------7-------7--------|
 G|--7-7-----7-7-----7-7-----7-7-----7-7----------|
 D|--7--------------------------------------------|
 A|--5--------------------------------------------|
 E|-----------------------------------------------|

| |
 
 G|-----------------------------------------------|
 D|------7-------7-------7-------7-------7--------|
 A|--5-5---5-5-5---5-5-5---5-5-5---5-5-5---5------|
 E|-----------------------------------------------|

Do you remember when... yeah, we used to sing
[G] [C] [G] [D]  
 
 e|-----3-----------3-----------------3--------------5---------------|
 B|-----3-----------5-----------------3--------------7---------------|
 G|---4-------------5-----------------4--------------7---------------|
 D|-5---------------5----------------5---------------7---------------|
 A|-5---------------3----------------5---------------5---------------|
 E|-3-------------------------------3--------------------------------|

| |
|bass |
 
 G|------------------------------------------------------------------|
 D|-------------------------0-2-0--------------------0-2-0-----------|
 A|-------------0-2-3-3-3--------------------2--3-----------3-2-0----|
 E|-3---3---3-----------------------3-3-3----------------------------|

Sha la la la la la la la la la la la
Sha la la la la la la la la la la la
[C] [B] [D] [G]  
 
 e|-------------------------------------------------|
 B|-------------------------------------------------|
 G|-5----4-----7------------------------------------|
 D|-5----4-----7---------5-5----5-5----5-5----5-5---|
 A|-3----2-----5---------5-5----5-5----5-5----5-5---|
 E|----------------------3-3----3-3----3-3----3-3---|

| |
 
 G|-------------------------------------------------|
 D|-------------------------------------------------|
 A|-3----2-----5----------------------------------5-|
 E|----------------------3-3----3-3----3-3----3-3---|

I hear a song makes me think about a girl I used to know, Hey hey hey hey
[C] [B] [D] [G]  
 
 e|-----------------------------------------------|
 B|---------------------------------------12b-----|
 G|-5----4-----7----------------------------------|
 D|-5----4-----7---------5------------------------|
 A|-3----2-----5---------5------------------------|
 E|----------------------3------------------------|

| |
 
 G|-----------------------------------------------|
 D|-----------------------------------------------|
 A|-3----2-----5----------------------------------|
 E|----------------------3------------------------| 

I sing along when I hear it on the radio now
[G] [C] [G] [D]  
 
 e|-----3--------------------------------3--------------------------|
 B|-----3--------------------------------3--------------------------|
 G|---4---4----------------------------4---4------------------------|
 D|-----------------------------------------------------------------|
 A|-----------------------------------------------------------------|
 E|-3-------------------------------3-------------------------------|

| |
|bass |
 
 G|-----------------------------------------------------------------|
 D|-------------------------------------------------0---------------|
 A|-----------------3-----------------------------------------------|
 E|-3-------------------------------3-------------------------------|

Now that the year's have gone by now that I'm all on my own
[G] [C] [G] [D]  
 
 e|-3---------------------------------------------------------------|
 B|-3---------------------------------------------------------------|
 G|-0-----------------------------------------------7---------------|
 D|-0-------------------------------5-5-5-5-5-5-5-5-7---------------|
 A|-2-------------------------------5-5-5-5-5-5-5-5-5---------------|
 E|-3-------------------------------3-3-3-3-3-3-3-3-----------------|

| |
|bass |
 
 G|-----------------------------------------------------------------|
 D|-------------------------------------------------0---------------|
 A|-----------------3-----------------------------------------------|
 E|-3-------------------------------3-3-3-3-3-3-3-3-----------------|

I saw you just the other day my, how you have grown
[G] [C] [G] [D]  
 
 e|---------3---------------3---------------3---------------3-2-0---|
 B|-----3-----3---3-----1-----1---1-----3-----3---3-----3---------3-|
 G|---0---0-----0-----0---0-----0-----0---0-----0-----2---2---------|
 D|-------------------------------------------------0---------------|
 A|-----------------3-----------------------------------------------|
 E|-3-------------------------------3-------------------------------|

| |
|bass |
 
 G|---------------------------------0-0-0-0-------------------------|
 D|-------------------------0-2-4-------------------0-0-0-0---------|
 A|-------------0-2-3-3-3--------------------2--3-------------------|
 E|-3---3---3-----------------------------------------------0-0-2---|

Cast my memory back there Lord sometimes I'm overcome thinkin' 'bout it. Making love in the green grass behind the stadium
[C] [B] [D] [G] [E]  
 
 e|-----------------------------------------------|
 B|-----------------------------------------------|
 G|-5----4-----7------------------------9---------|
 D|-5----4-----7----------------5-------9---------|
 A|-3----2-----5----------------5-------7---------|
 E|-----------------------------3-----------------|

| |
 
 G|-----------------------------------------------|
 D|-------------------------------------2--0-2-0--|
 A|-3----2-----5----------------------3-----------|
 E|---------------------3-5-3-2-3-----------------|

With you, my brown eyed girl
You, my brown eyed girl
[C] [B] [D] [G]  
 
 e|-----------------------------------------------|
 B|-----------------------------------------------|
 G|-5----4-----7----------------------------------|
 D|-5----4-----7----------------5-----------------|
 A|-3----2-----5----------------5-----------------|
 E|-----------------------------3-----------------|

| |
 
 G|-----------------------------------------------|
 D|-----------------------------------------------|
 A|-3----2-----5----------------------------------|
 E|---------------------3-5-3-2-3-----------------|

You, my brown eyed girl,
[D]  
 
 e|--------5-------5-------5-------5-------5------|
 B|------7-------7-------7-------7-------7--------|
 G|--7-7-----7-7-----7-7-----7-7-----7-7----------|
 D|--7--------------------------------------------|
 A|--5--------------------------------------------|
 E|-----------------------------------------------|

| |
 
 G|-----------------------------------------------|
 D|------7-------7-------7-------7-------7--------|
 A|--5-5---5-5-5---5-5-5---5-5-5---5-5-5---5------|
 E|-----------------------------------------------|

Do you remember when... yeah, we used to sing
[G] [C] [G] [D]  
 
 e|-----3-----------3-----------------3--------------5---------------|
 B|-----3-----------5-----------------3--------------7---------------|
 G|---4-------------5-----------------4--------------7---------------|
 D|-5---------------5----------------5---------------7---------------|
 A|-5---------------3----------------5---------------5---------------|
 E|-3-------------------------------3--------------------------------|

| |
|bass |
 
 G|------------------------------------------------------------------|
 D|-------------------------0-2-0--------------------0-2-0-----------|
 A|-------------0-2-3-3-3--------------------2--3-----------3-2-0----|
 E|-3---3---3-----------------------3-3-3----------------------------|

Sha la la la la la la la la la la la
Sha la la la la la la la la la la la
[C] [B] [D] [G]  
 
 e|-------------------------------------------------|
 B|-------------------------------------------------|
 G|-5----4-----7------------------------------------|
 D|-5----4-----7---------5-5----5-5----5-5----5-5---|
 A|-3----2-----5---------5-5----5-5----5-5----5-5---|
 E|----------------------3-3----3-3----3-3----3-3---|

| |
 
 G|-------------------------------------------------|
 D|-------------------------------------------------|
 A|-3----2-----5----------------------------------5-|
 E|----------------------3-3----3-3----3-3----3-3---|

I hear a song makes me think about a girl I used to know, Hey hey hey hey
I sing along when I hear it on the radio now
[C] [B] [D] [G]  
 
 e|-----------------------------------------------|
 B|---------------------------------------12b-----|
 G|-5----4-----7----------------------------------|
 D|-5----4-----7---------5------------------------|
 A|-3----2-----5---------5------------------------|
 E|----------------------3------------------------|

| |
 
 G|-----------------------------------------------|
 D|-----------------------------------------------|
 A|-3----2-----5----------------------------------|
 E|----------------------3------------------------| 

I sing along when I hear it on the radio now
I sing along when I hear it on the radio now
JASON'S EVERCLEAR TABS - http://members.tripod.com/~panec/

Important: The song above is NOT stored on the Chordie server. The original song is hosted at www.xguitar.com. Chordie works as a search engine and provides on-the-fly formatting. Chordie does not index songs against artists'/composers' will. To remove this song please click here.

Text color:
Chord color:
Chord grids: 
Font size:    
Page size: 

B C D E G
Rate #4 of 5 versions

Login - add to songbook

SHARE PAGE  




You need to log in to post comments