Guitar Tabs, Chords and Lyrics
Major upgrade!! After one year development the new version of Chordie is now online! Please give feedback.


Here We Go Again  Everclear

As recorded by Everclear on "SFAAM #1: Learning How To Smile"
Tabbed by Jason Pan (balaka@alphalink.com.au)
 
 e|-----------------------------------------------|
 B|----------6--x-x-x-x-x-x-x-x-x-x-x-x-x---------|
 G|--3h5--3--5--x-x-x-x-x-x-x-x-x-x-x-x-x---------|
 D|--------------(scratching with a wah-wah)------|
 A|-----------------------------------------------|
 E|-----------------------------------------------|

!NOTE! - this part below is WRONG. For the correct part, see the suggestions
at the bottom of the tab. Thanks to all those who pointed it out.
[C] [C#]  
 
 e|-----------------------------------------------|
 B|-----------------------------------------------|
 G|--5--5-------5--5-------5--5-------5--5--6-----|
 D|--5--5-------5--5-------5--5-------5--5--6-----|
 A|--3--3-------3--3-------3--3-------3--3--4-----|
 E|-----------------------------------------------|

[C] [C#] [C]  
 
 e|--------------------------0---------------------|
 B|--------------------------1---------------------|
 G|-5--5-------5--5--6-------0---------------------|
 D|-5--5-------5--5--6-------2---------------------|
 A|-3--3-------3--3--4-------3---------------------|
 E|------------------------------------------------|

Ohhhhhh......
[C] [C#]  
 
 e|-----------------------------------------------| x3
 B|-----------------------------------------------|
 G|--5--5-------5--5-------5--5-------5--5--6-----|
 D|--5--5-------5--5-------5--5-------5--5--6-----|
 A|--3--3-------3--3-------3--3-------3--3--4-----|
 E|-----------------------------------------------|

Oh, you know I like to watch you sleep
No, I don't wanna touch you
You'll get mad at me
No, I don't wanna think about the bad times
Oh, anyone can have a bad year
[C] [B] [A]  
 
 e|-----------------------------------------------|
 B|-----------------------------------------------|
 G|--5--5-------5--5-------5--5-------5---4---2---|
 D|--5--5-------5--5-------5--5-------5---4---2---|
 A|--3--3-------3--3-------3--3-------3---2---0---|
 E|-----------------------------------------------|

| |
 
 e|-----------------------------------------------|
 B|-----------------------------------13--12--10--|
 G|-----------------------------------------------|
 D|-------------------------------------10--10--10|
 A|-----------------------------------------------|
 E|-----------------------------------------------|

Now I don't want you to show me
[A] [G] [F]  
 
 e|-----------------------------------------------|
 B|-----------------------------------------------|
 G|-----------------------------------------------|
 D|----7---5---3----------------------------------|
 A|----7---5---3----------------------------------|
 E|----5---3---1----------------------------------|

| |
 
 e|-----------------------------------------------|
 B|-8--10--8---6--------1-3-4-4-4p3---------------|
 G|-----------------2-----------------------------|
 D|-----------------------------------------------|
 A|-----------------------------------------------|
 E|-----------------------------------------------| 

Do not want you to know me The way I used to be
[C] [B] [A]  
 
 e|-----------------------------------------------|
 B|-----------------------------------------------|
 G|--5--5-------5--5-------5--5-------5---4---2---|
 D|--5--5-------5--5-------5--5-------5---4---2---|
 A|--3--3-------3--3-------3--3-------3---2---0---|
 E|-----------------------------------------------|

| |
 
 e|-----------------------------------------------|
 B|-----------------------------------13--12--10--|
 G|-----------------------------------------------|
 D|-------------------------------------10--10--10|
 A|-----------------------------------------------|
 E|-----------------------------------------------|

All these good things we have would not mean a damn to me
[A] [G] [F]  
 
 e|-----------------------------------------------|
 B|-----------------------------------------------|
 G|-----------------------------------------------|
 D|----7---5---3----------------------------------|
 A|----7---5---3----------------------------------|
 E|----5---3---1----------------------------------|

| |
 
 e|-----------------------------------------------|
 B|-8--10--8---6--------1-3-4-4-4p3---------------|
 G|-----------------2-----------------------------|
 D|-----------------------------------------------|
 A|-----------------------------------------------|
 E|-----------------------------------------------| 

I don't wanna hear those words you feel you have to say
[C] [C#] [C]  
 
 e|--------------------------0---------------------|
 B|--------------------------1---------------------|
 G|-5--5-------5--5--6-------0---------------------|
 D|-5--5-------5--5--6-------2---------------------|
 A|-3--3-------3--3--4-------3---------------------|
 E|------------------------------------------------|

When you find out how I used to be back in the day
[C] [C#]  
 
 e|-----------------------------------------------| x3
 B|-----------------------------------------------|
 G|--5--5-------5--5-------5--5-------5--5--6-----|
 D|--5--5-------5--5-------5--5-------5--5--6-----|
 A|--3--3-------3--3-------3--3-------3--3--4-----|
 E|-----------------------------------------------|

Yea, you know I like the way you slide
Yes, I like it when you do that slow glide
Please don't bad talk all those good times
Don't ask for answers baby
[C] [B] [A]  
 
 e|-----------------------------------------------|
 B|-----------------------------------------------|
 G|--5--5-------5--5-------5--5-------5---4---2---|
 D|--5--5-------5--5-------5--5-------5---4---2---|
 A|--3--3-------3--3-------3--3-------3---2---0---|
 E|-----------------------------------------------|

| |
 
 e|-----------------------------------------------|
 B|-----------------------------------13--12--10--|
 G|-----------------------------------------------|
 D|-------------------------------------10--10--10|
 A|-----------------------------------------------|
 E|-----------------------------------------------|

That you do not wanna hear I don't want you to make me
[A] [G] [F]  
 
 e|-----------------------------------------------|
 B|-----------------------------------------------|
 G|-----------------------------------------------|
 D|----7---5---3----------------------------------|
 A|----7---5---3----------------------------------|
 E|----5---3---1----------------------------------|

| |
 
 e|-----------------------------------------------|
 B|-8--10--8---6--------1-3-4-4-4p3---------------|
 G|-----------------2-----------------------------|
 D|-----------------------------------------------|
 A|-----------------------------------------------|
 E|-----------------------------------------------| 

Do not need you to break me of all my childish ways
[C] [B] [A]  
 
 e|-----------------------------------------------|
 B|-----------------------------------------------|
 G|--5--5-------5--5-------5--5-------5---4---2---|
 D|--5--5-------5--5-------5--5-------5---4---2---|
 A|--3--3-------3--3-------3--3-------3---2---0---|
 E|-----------------------------------------------|

| |
 
 e|-----------------------------------------------|
 B|-----------------------------------13--12--10--|
 G|-----------------------------------------------|
 D|-------------------------------------10--10--10|
 A|-----------------------------------------------|
 E|-----------------------------------------------|

I'm still the same you know. Dumb rock hard and good you go..
I still hear the voices calling me from
[A] [G] [F]  
 
 e|-----------------------------------------------|
 B|-----------------------------------------------|
 G|-----------------------------------------------|
 D|----7---5---3----------------------------------|
 A|----7---5---3----------------------------------|
 E|----5---3---1----------------------------------|

| |
 
 e|-----------------------------------------------|
 B|-8--10--8---6--------1-3-4-4-4p3---------------|
 G|-----------------2-----------------------------|
 D|-----------------------------------------------|
 A|-----------------------------------------------|
 E|-----------------------------------------------| 

Back in the day
[C] [C#] [C]  
 
 e|--------------------------0---------------------|
 B|--------------------------1---------------------|
 G|-5--5-------5--5--6-------0---------------------|
 D|-5--5-------5--5--6-------2---------------------|
 A|-3--3-------3--3--4-------3---------------------|
 E|------------------------------------------------|

Oh baby can't you see there ain't no place I'd rather be
[F] [G]  
 
 e|-----------------------------------------------|
 B|-----------------------------------------------|
 G|-----------------------------------------------|
 D|-3-3-3-3-3-3-3-3--5-5-5-5-5-5-5-5-5------------|
 A|-3-3-3-3-3-3-3-3--5-5-5-5-5-5-5-5-5------------|
 E|-1-1-1-1-1-1-1-1--3-3-3-3-3-3-3-3-3------------|

Then watching dirty movies in that happy room with you
[C] [B] [A]  
 
 e|-----------------------------------------------|
 B|-----------------------------------------------|
 G|-5-5-5-5-5-5-4-4--2-2-2-2-2-2-2-2-2------------|
 D|-5-5-5-5-5-5-4-4--2-2-2-2-2-2-2-2-2------------|
 A|-3-3-3-3-3-3-2-2--0-0-0-0-0-0-0-0-0------------|
 E|-----------------------------------------------|

Sittin' on my mattress in the corner, eating chinese food
[F] [G]  
 
 e|-----------------------------------------------|
 B|-----------------------------------------------|
 G|-----------------------------------------------|
 D|-3-3-3-3-3-3-3-3--5-5-5-5-5-5-5-5-5------------|
 A|-3-3-3-3-3-3-3-3--5-5-5-5-5-5-5-5-5------------|
 E|-1-1-1-1-1-1-1-1--3-3-3-3-3-3-3-3-3------------|

I hear that voice in my head say here we go again
[C] [C#]  
 
 e|-----------------------------------------------|
 B|-----------------------------------------------|
 G|--5--5-------5--5-------5--5-------5--5--6-----|
 D|--5--5-------5--5-------5--5-------5--5--6-----|
 A|--3--3-------3--3-------3--3-------3--3--4-----|
 E|-----------------------------------------------|

Now here we go again
[C] [C#] [C]  
 
 e|--------------------------0---------------------|
 B|--------------------------1---------------------|
 G|-5--5-------5--5--6-------0---------------------|
 D|-5--5-------5--5--6-------2---------------------|
 A|-3--3-------3--3--4-------3---------------------|
 E|------------------------------------------------|

I know you like the way I rock
[C] [C#]  
 
 e|-----------------------------------------------| x3
 B|-----------------------------------------------|
 G|--5--5-------5--5-------5--5-------5--5--6-----|
 D|--5--5-------5--5-------5--5-------5--5--6-----|
 A|--3--3-------3--3-------3--3-------3--3--4-----|
 E|-----------------------------------------------|

| |
 
 e|-----------------------------------------------|
 B|------7p5--------------------------------------|
 G|---------8p5-----------------------------------|
 D|-----------------------------------------------|
 A|-----------------------------------------------|
 E|-----------------------------------------------|

Sometimes I just need to drown out all the bad talk
I could not care less what your friends say
Someone's always talking shit
[C] [B] [A]  
 
 e|-----------------------------------------------|
 B|-----------------------------------------------|
 G|--5--5-------5--5-------5--5-------5---4---2---|
 D|--5--5-------5--5-------5--5-------5---4---2---|
 A|--3--3-------3--3-------3--3-------3---2---0---|
 E|-----------------------------------------------|

| |
 
 e|-----------------------------------------------|
 B|-----------------------------------13--12--10--|
 G|-----------------------------------------------|
 D|-------------------------------------10--10--10|
 A|-----------------------------------------------|
 E|-----------------------------------------------|

about the old day You do not need to remind me
[A] [G] [F]  
 
 e|-----------------------------------------------|
 B|-----------------------------------------------|
 G|-----------------------------------------------|
 D|----7---5---3----------------------------------|
 A|----7---5---3----------------------------------|
 E|----5---3---1----------------------------------|

| |
 
 e|-----------------------------------------------|
 B|-8--10--8---6--------1-3-4-4-4p3---------------|
 G|-----------------2-----------------------------|
 D|-----------------------------------------------|
 A|-----------------------------------------------|
 E|-----------------------------------------------| 

That I left it all behind me those things I used to do
[C] [B] [A]  
 
 e|-----------------------------------------------|
 B|-----------------------------------------------|
 G|--5--5-------5--5-------5--5-------5---4---2---|
 D|--5--5-------5--5-------5--5-------5---4---2---|
 A|--3--3-------3--3-------3--3-------3---2---0---|
 E|-----------------------------------------------|

| |
 
 e|-----------------------------------------------|
 B|-----------------------------------13--12--10--|
 G|-----------------------------------------------|
 D|-------------------------------------10--10--10|
 A|-----------------------------------------------|
 E|-----------------------------------------------|

I don't want that older life cause I am so in love with you
[A] [G] [F]  
 
 e|-----------------------------------------------|
 B|-----------------------------------------------|
 G|-----------------------------------------------|
 D|----7---5---3----------------------------------|
 A|----7---5---3----------------------------------|
 E|----5---3---1----------------------------------|

| |
 
 e|-----------------------------------------------|
 B|-8--10--8---6--------1-3-4-4-4p3---------------|
 G|-----------------2-----------------------------|
 D|-----------------------------------------------|
 A|-----------------------------------------------|
 E|-----------------------------------------------| 

I can barely hear it calling me from back in the day
[C] [C#] [C]  
 
 e|--------------------------0---------------------|
 B|--------------------------1---------------------|
 G|-5--5-------5--5--6-------0---------------------|
 D|-5--5-------5--5--6-------2---------------------|
 A|-3--3-------3--3--4-------3---------------------|
 E|------------------------------------------------|

Oh baby can't you see there ain't no place I'd rather be
[F] [G]  
 
 e|-----------------------------------------------|
 B|-----------------------------------------------|
 G|-----------------------------------------------|
 D|-3-3-3-3-3-3-3-3--5-5-5-5-5-5-5-5-5------------|
 A|-3-3-3-3-3-3-3-3--5-5-5-5-5-5-5-5-5------------|
 E|-1-1-1-1-1-1-1-1--3-3-3-3-3-3-3-3-3------------|

Then watching dirty movies in that happy room with you
[C] [B] [A]  
 
 e|-----------------------------------------------|
 B|-----------------------------------------------|
 G|-5-5-5-5-5-5-4-4--2-2-2-2-2-2-2-2-2------------|
 D|-5-5-5-5-5-5-4-4--2-2-2-2-2-2-2-2-2------------|
 A|-3-3-3-3-3-3-2-2--0-0-0-0-0-0-0-0-0------------|
 E|-----------------------------------------------|

Sittin' on my mattress in the corner, eating chinese food
[F] [G]  
 
 e|-----------------------------------------------|
 B|-----------------------------------------------|
 G|-----------------------------------------------|
 D|-3-3-3-3-3-3-3-3--5-5-5-5-5-5-5-5-5------------|
 A|-3-3-3-3-3-3-3-3--5-5-5-5-5-5-5-5-5------------|
 E|-1-1-1-1-1-1-1-1--3-3-3-3-3-3-3-3-3------------|

I hear that voice in my head say here we go again
[C] [C#]  
 
 e|-----------------------------------------------|
 B|-----------------------------------------------|
 G|--5--5-------5--5-------5--5-------5--5--6-----|
 D|--5--5-------5--5-------5--5-------5--5--6-----|
 A|--3--3-------3--3-------3--3-------3--3--4-----|
 E|-----------------------------------------------|

| |
 
 e|-----------------------------------------4-3---|
 B|-----------------------------------------6-5---|
 G|-----------------------------------------6-5---|
 D|-----------------------------------------------|
 A|-----------------------------------------------|
 E|-----------------------------------------------|

Yeah here we go again
[C] [C#]  
 
 e|-----------------------------------------------| x2
 B|-----------------------------------------------|
 G|--5--5-------5--5-------5--5-------5--5--6-----|
 D|--5--5-------5--5-------5--5-------5--5--6-----|
 A|--3--3-------3--3-------3--3-------3--3--4-----|
 E|-----------------------------------------------|

| |
 
 e|-----------------------------------------4-3---|
 B|------7p5--------------------------------6-5---|
 G|---------8p5-----------------------------6-5---|
 D|-----------------------------------------------|
 A|-----------------------------------------------|
 E|-----------------------------------------------|

Oh baby, here we go again
I know, I know, I know, I know
[C]  
 
 e|-----------------------------------------------|
 B|-----------------------------------------------|
 G|-5-5-5-5-5-5-5-5-5-----------------------------|
 D|-5-5-5-5-5-5-5-5-5-----------------------------|
 A|-3-3-3-3-3-3-3-3-3-----------------------------|
 E|-----------------------------------------------|

I know.... Oh baby, baby can't you see
[F] [G]  
 
 e|-----------------------------------------------|
 B|-----------------------------------------------|
 G|-----------------------------------------------|
 D|-3-3-3-3-3-3-3-3--5-5-5-5-5-5-5-5-5------------|
 A|-3-3-3-3-3-3-3-3--5-5-5-5-5-5-5-5-5------------|
 E|-1-1-1-1-1-1-1-1--3-3-3-3-3-3-3-3-3------------|

Yes I know you have some doubts I know you don't believe
[C] [B] [A]  
 
 e|-----------------------------------------------|
 B|-----------------------------------------------|
 G|-5-5-5-5-5-5-4-4--2-2-2-2-2-2-2-2-2------------|
 D|-5-5-5-5-5-5-4-4--2-2-2-2-2-2-2-2-2------------|
 A|-3-3-3-3-3-3-2-2--0-0-0-0-0-0-0-0-0------------|
 E|-----------------------------------------------|

I know you think I'm crazy and I know you're just like me
[F] [G]  
 
 e|-----------------------------------------------|
 B|-----------------------------------------------|
 G|-----------------------------------------------|
 D|-3-3-3-3-3-3-3-3--5-5-5-5-5-5-5-5-5------------|
 A|-3-3-3-3-3-3-3-3--5-5-5-5-5-5-5-5-5------------|
 E|-1-1-1-1-1-1-1-1--3-3-3-3-3-3-3-3-3------------|

When I hear that voice inside me makes me wanna jump right in
[C]  
 
 e|-----------------------------------------------|
 B|-----------------------------------------------|
 G|--5--5-------5--5-------5--5--5--5--5--5--5--5-|
 D|--5--5-------5--5-------5--5--5--5--5--5--5--5-|
 A|--3--3-------3--3-------3--3--3--3--3--3--3--3-|
 E|-----------------------------------------------|

Say here we go, here we go, here we go, here we go again
[F] [G]  
 
 e|-----------------------------------------------|
 B|-----------------------------------------------|
 G|-----------------------------------------------|
 D|-3-3-3-3-3-3-3-3--5-5-5-5-5-5-5-5-5------------|
 A|-3-3-3-3-3-3-3-3--5-5-5-5-5-5-5-5-5------------|
 E|-1-1-1-1-1-1-1-1--3-3-3-3-3-3-3-3-3------------|

Lets go watch some dirty movies, yes, in that nasty little room
[C] [B] [A]  
 
 e|-----------------------------------------------|
 B|-----------------------------------------------|
 G|-5-5-5-5-5-5-4-4--2-2-2-2-2-2-2-2-2------------|
 D|-5-5-5-5-5-5-4-4--2-2-2-2-2-2-2-2-2------------|
 A|-3-3-3-3-3-3-2-2--0-0-0-0-0-0-0-0-0------------|
 E|-----------------------------------------------|

Sit there on the mattress while we eat that greasy Chinese food
[F] [G]  
 
 e|-----------------------------------------------|
 B|-----------------------------------------------|
 G|-----------------------------------------------|
 D|-3-3-3-3-3-3-3-3--5----------------------------|
 A|-3-3-3-3-3-3-3-3--5----------------------------|
 E|-1-1-1-1-1-1-1-1--3----------------------------|

I hear that voice in my head say here we go again
[C] [C#]  
 
 e|-----------------------------------------------| x2
 B|-----------------------------------------------|
 G|--5--5-------5--5-------5--5-------5--5--6-----|
 D|--5--5-------5--5-------5--5-------5--5--6-----|
 A|--3--3-------3--3-------3--3-------3--3--4-----|
 E|-----------------------------------------------|

| |
 
 e|-----------------------------------------4-3---|
 B|-----------------------------------------6-5---|
 G|-----------------------------------------6-5---|
 D|-----------------------------------------------|
 A|-----------------------------------------------|
 E|-----------------------------------------------| 

Ohh... Baby here we go again
 
 e|-----------3/----------------------------------|
 B|-----------5/----------------------------------|
 G|-----------5/----------------------------------|
 D|-----------------------------------------------|
 A|-----------------------------------------------|
 E|-----------------------------------------------|

Suggestion by Kurt (KURT-KRISTY@bigpond.com)
The intro to Here we go again sounds a little off try this
 
 ------0----0----- ------0----0----0----0----0----0----
 ------1----1----- ------1----1----2----2----1----1----
 ------3----3----- x3 then ------3----3----4----4----3----3----
 ------2----2----- ------2----2----3----3----2----2----
 ------3----3----- ------3----3----4----4----3----3----
 ----------------- ------------------------------------

Suggestion by Chook R.V. (chookmv@hotmail.com)
I found a mistake in your Here We Go Tab. I dont know if you care but
the intro is played with these chords.
 
 G|--3--3----3-3---3-3--3-3-4----|
 D|--2--2----2-2---2-2--2-2-3----|
 A|--3--3----3-3---3-3--3-3-4----|

Instead of 5th chords.
Suggestion by "Eric Clapton" (waxlrose08@hotmail.com)
I think the C and the C# at the first are actually 7th chords played like this:
 
 e|------------|
 B|------------|
 G|--3---4-----|
 D|--2---3-----|
 A|--3---4-----|
 E|------------|

That's how it sounds to me, I may be wrong though. Kickass page!
JASON'S EVERCLEAR TABS - http://members.tripod.com/~panec/

Important: The song above is NOT stored on the Chordie server. The original song is hosted at www.xguitar.com. Chordie works as a search engine and provides on-the-fly formatting. Chordie does not index songs against artists'/composers' will. To remove this song please click here.

Text color:
Chord color:
Chord grids: 
Font size:    
Page size: 

A B C C# F G
Rate #2 of 4 versions

Login - add to songbook

SHARE PAGE  



You need to log in to post comments