Guitar Tabs, Chords and Lyrics
Major upgrade!! After one year development the new version of Chordie is now online! Please give feedback.


The Honeymoon Song  Everclear

As recorded by Everclear on "SFAAM #1: Learning how to Smile"
Tabbed by Jason Pan (balaka@alphalink.com.au)
In 3/4 time - quite unusual for Everclear.
/ - slide up (towards the body)
\ - slide down (towards the headstock)
"one two three two two three"
Ukelele arranged for guitar - NOTE: Fingerpick these ukelele chords
[C] [Bb] [F] [G#6]  
 
 e|--8--8--8--6--6--6--5--5--5--4--4--4---|
 B|--8--8--8--6--6--6--6--6--6--6--6--6---|
 G|--x--x--x--x--x--x--x--x--x--x--x--x---|
 D|-10-10-10--8--8--8--7--7--7--6--6--6---|
 A|---------------------------------------|
 E|---------------------------------------|

|Guitar |
 
 e|---------------------------------------|
 B|-13~~----------------------------------|
 G|-12~~----------------------------------|
 D|-10~~----------------------------------|
 A|-10~~----------------------------------|
 E|---------------------------------------|

[G6] [G] [G6]  
 
 e|-3--3--3--7--7--7--3--3--3--3--3--3----|
 B|-5--5--5--8--8--8--5--5--5--5--5--5----|
 G|-x--x--x--x--x--x--x--x--x--x--x--x----|
 D|-5--5--5--9--9--9--5--5--5--5--5--5----|
 A|---------------------------------------|
 E|---------------------------------------|

|Guitar |
 
 e|---------------------------------------|
 B|-13~~---------------13--13--13--13-----|
 G|-12~~----------------12--12--12--12----|
 D|-10~~-------------/10--10--10--10------|
 A|-10~~----------------------------------|
 E|---------------------------------------|

[C] [Bb] [F] [G#6]  
 
 e|--8--8--8--6--6--6--5--5--5--4--4--4---|
 B|--8--8--8--6--6--6--6--6--6--6--6--6---|
 G|--x--x--x--x--x--x--x--x--x--x--x--x---|
 D|-10-10-10--8--8--8--7--7--7--6--6--6---|
 A|---------------------------------------|
 E|---------------------------------------|

|Guitar |
 
 e|---------------------------------------|
 B|--13--13---11--11---13--13---13--13----|
 G|---12--12---10--10---14--14---13--13---|
 D|-10--10---8---8----15--15--------------|
 A|----------------------------11--11-----|
 E|---------------------------------------|

|(Played with a slide) |
 
 e|-/8------------------------------------|
 B|-/8------------------------------------|
 G|---------------------------------------|
 D|---------------------------------------|
 A|---------------------------------------|
 E|---------------------------------------|

[G6] [G] [G6]  
 
 e|-3--3--3--7--7--7--3--3--3--3--3--3-----|
 B|-5--5--5--8--8--8--5--5--5--5--5--5-----|
 G|-x--x--x--x--x--x--x--x--x--x--x--x-----|
 D|-5--5--5--9--9--9--5--5--5--5--5--5-----|
 A|----------------------------------------|
 E|----------------------------------------|

|Guitar |
 
 e|----------------------------------------|
 B|--13--13---12--12-----------------------|
 G|---12--12---12--12--12h14-14-14-12------|
 D|----------12--12--12--------------14-12-|
 A|-10--10---------------------------------|
 E|----------------------------------------|

|(Played with a slide) |
 
 e|-/8-------/15\--------------------------|
 B|-/8-------/15\--------------------------|
 G|----------------------------------------|
 D|----------------------------------------|
 A|----------------------------------------|
 E|----------------------------------------|

[F] [G] [G6]  
 
 e|-5--5--5--7--7--7--3--3--3--3--3--3-----| x2
 B|-6--6--6--8--8--8--5--5--5--5--5--5-----|
 G|-x--x--x--x--x--x--x--x--x--x--x--x-----|
 D|-7--7--7--9--9--9--5--5--5--5--5--5-----|
 A|----------------------------------------|
 E|----------------------------------------|

|Guitar |
 
 e|----------------------------------------|
 B|----------------------------------------|
 G|-------------------12h14-14-12----------|
 D|-------------------------------14-12----|
 A|----------------------------------------|
 E|----------------------------------------|

|(Played with a slide) |
 
 e|-/13------/15\----\8--------------------|
 B|-/13------/15\----\8--------------------|
 G|----------------------------------------|
 D|----------------------------------------|
 A|----------------------------------------|
 E|----------------------------------------|

You know I love you Baby
and I know you love me too
[F] [G] [G6] [F]  
 
 e|-5--5--5--7--7--7--3--3--3--5--5--5-----|
 B|-6--6--6--8--8--8--5--5--5--6--6--6-----|
 G|-x--x--x--x--x--x--x--x--x--x--x--x-----|
 D|-7--7--7--9--9--9--5--5--5--7--7--7-----|
 A|----------------------------------------|
 E|----------------------------------------|

|(Played with a slide) |
 
 e|-/13------/15\----\8/------/13----------|
 B|-/13------/15\----\8/------/13----------|
 G|----------------------------------------|
 D|----------------------------------------|
 A|----------------------------------------|
 E|----------------------------------------|

But the fun that day didn't start until
[F] [G]  
 
 e|-5--5--5--7--7--7----|
 B|-6--6--6--8--8--8----|
 G|-x--x--x--x--x--x----|
 D|-7--7--7--9--9--9----|
 A|---------------------|
 E|---------------------|

|Guitar |
 
 e|---------------------|
 B|---------------------|
 G|----------12-14-12---|
 D|------------------14-|
 A|---------------------|
 E|---------------------|

|(slide guitar) |
 
 e|-/13------/15\-------|
 B|-/13------/15\-------|
 G|---------------------|
 D|---------------------|
 A|---------------------|
 E|---------------------|

We left on our Honeymoon
[C] [Bb] [F] [G#6]  
 
 e|--8--8--8--6--6--6--5--5--5--4--4--4---|
 B|--8--8--8--6--6--6--6--6--6--6--6--6---|
 G|--x--x--x--x--x--x--x--x--x--x--x--x---|
 D|-10-10-10--8--8--8--7--7--7--6--6--6---|
 A|---------------------------------------|
 E|---------------------------------------|

|Guitar |
 
 e|---------------------------------------|
 B|--13--13---11--11---13--13---13--13----|
 G|---12--12---10--10---14--14---13--13---|
 D|-10--10---8---8----15--15--------------|
 A|----------------------------11--11-----|
 E|---------------------------------------|

|(Played with a slide) |
 
 e|-/8------------------------------------|
 B|-/8------------------------------------|
 G|---------------------------------------|
 D|---------------------------------------|
 A|---------------------------------------|
 E|---------------------------------------|

[G6] [G] [G6]  
 
 e|-3--3--3--7--7--7--3--3--3--3--3--3-------------|
 B|-5--5--5--8--8--8--5--5--5--5--5--5-------------|
 G|-x--x--x--x--x--x--x--x--x--x--x--x-------------|
 D|-5--5--5--9--9--9--5--5--5--5--5--5-------------|
 A|------------------------------------------------|
 E|------------------------------------------------|

|Guitar |
 
 e|------------------------------------------------|
 B|--13--13---12--12-----13-15b-13-----------------|
 G|---12--12---12--12--14---------14-12------------|
 D|----------12--12--12----------------14-12h14p12-|
 A|-10--10-----------------------------------------|
 E|------------------------------------------------|

|(Played with a slide) |
 
 e|-/8-------/15\----\8----------------------------|
 B|-/8-------/15\----\8----------------------------|
 G|------------------------------------------------|
 D|------------------------------------------------|
 A|------------------------------------------------|
 E|------------------------------------------------|

[C] [Bb] [F] [G#6]  
 
 e|--8--8--8--6--6--6--5--5--5--4--4--4---|
 B|--8--8--8--6--6--6--6--6--6--6--6--6---|
 G|--x--x--x--x--x--x--x--x--x--x--x--x---|
 D|-10-10-10--8--8--8--7--7--7--6--6--6---|
 A|---------------------------------------|
 E|---------------------------------------|

Stepped off the Plane into a warm sunny day
[G6] [G] [G6]  
 
 e|-3--3--3--7--7--7--3--3--3--3--3--3-----|
 B|-5--5--5--8--8--8--5--5--5--5--5--5-----|
 G|-x--x--x--x--x--x--x--x--x--x--x--x-----|
 D|-5--5--5--9--9--9--5--5--5--5--5--5-----|
 A|----------------------------------------|
 E|----------------------------------------|

And we got leid together
[C] [Bb] [F] [G#6]  
 
 e|--8--8--8--6--6--6--5--5--5--4--4--4---|
 B|--8--8--8--6--6--6--6--6--6--6--6--6---|
 G|--x--x--x--x--x--x--x--x--x--x--x--x---|
 D|-10-10-10--8--8--8--7--7--7--6--6--6---|
 A|---------------------------------------|
 E|---------------------------------------|

The sun shines down on a Hana Lei town
[G6] [G] [G6]  
 
 e|-3--3--3--7--7--7--3--3--3--3--3--3-------------|
 B|-5--5--5--8--8--8--5--5--5--5--5--5-------------|
 G|-x--x--x--x--x--x--x--x--x--x--x--x-------------|
 D|-5--5--5--9--9--9--5--5--5--5--5--5-------------|
 A|------------------------------------------------|
 E|------------------------------------------------|

|(Played with a slide) |
 
 e|-/8-------/15\----\8----------------------------|
 B|-/8-------/15\----\8----------------------------|
 G|------------------------------------------------|
 D|------------------------------------------------|
 A|------------------------------------------------|
 E|------------------------------------------------|

Where the fish all smile cause they know us
[F] [G] [G6]  
 
 e|-5--5--5--7--7--7--3--3--3--3--3--3-----| x2
 B|-6--6--6--8--8--8--5--5--5--5--5--5-----|
 G|-x--x--x--x--x--x--x--x--x--x--x--x-----|
 D|-7--7--7--9--9--9--5--5--5--5--5--5-----|
 A|----------------------------------------|
 E|----------------------------------------|

|Guitar |
 
 e|----------------------------------------|
 B|----------------------------------------|
 G|-------------------12h14-14-12----------|
 D|-------------------------------14-12----|
 A|----------------------------------------|
 E|----------------------------------------|

|(Played with a slide) |
 
 e|-/13------/15\----\8--------------------|
 B|-/13------/15\----\8--------------------|
 G|----------------------------------------|
 D|----------------------------------------|
 A|----------------------------------------|
 E|----------------------------------------|

Our wedding day was warm and sunny
Our friends and family came from out of town
[F] [G] [G6] [F]  
 
 e|-5--5--5--7--7--7--3--3--3--5--5--5-----|
 B|-6--6--6--8--8--8--5--5--5--6--6--6-----|
 G|-x--x--x--x--x--x--x--x--x--x--x--x-----|
 D|-7--7--7--9--9--9--5--5--5--7--7--7-----|
 A|----------------------------------------|
 E|----------------------------------------|

|(Played with a slide) |
 
 e|-/13------/15\----\8/------/13----------|
 B|-/13------/15\----\8/------/13----------|
 G|----------------------------------------|
 D|----------------------------------------|
 A|----------------------------------------|
 E|----------------------------------------|

We said I do and ate some food
[F] [G]  
 
 e|-5--5--5--7--7--7----|
 B|-6--6--6--8--8--8----|
 G|-x--x--x--x--x--x----|
 D|-7--7--7--9--9--9----|
 A|---------------------|
 E|---------------------|

|Guitar |
 
 e|---------------------|
 B|---------------------|
 G|----------12-14-12---|
 D|------------------14-|
 A|---------------------|
 E|---------------------|

|(slide guitar) |
 
 e|-/13------/15\-------|
 B|-/13------/15\-------|
 G|---------------------|
 D|---------------------|
 A|---------------------|
 E|---------------------|

And smiled until the sun went down
[C] [Bb] [F] [G#6]  
 
 e|--8--8--8--6--6--6--5--5--5--4--4--4---|
 B|--8--8--8--6--6--6--6--6--6--6--6--6---|
 G|--x--x--x--x--x--x--x--x--x--x--x--x---|
 D|-10-10-10--8--8--8--7--7--7--6--6--6---|
 A|---------------------------------------|
 E|---------------------------------------|

|Guitar |
 
 e|---------------------------------------|
 B|--13--13---11--11---13--13---13--13----|
 G|---12--12---10--10---14--14---13--13---|
 D|-10--10---8---8----15--15--------------|
 A|----------------------------11--11-----|
 E|---------------------------------------|

|(Played with a slide) |
 
 e|-/8------------------------------------|
 B|-/8------------------------------------|
 G|---------------------------------------|
 D|---------------------------------------|
 A|---------------------------------------|
 E|---------------------------------------|

[G6] [G] [G6]  
 
 e|-3--3--3--7--7--7--3--3--3--3--3--3-----|
 B|-5--5--5--8--8--8--5--5--5--5--5--5-----|
 G|-x--x--x--x--x--x--x--x--x--x--x--x-----|
 D|-5--5--5--9--9--9--5--5--5--5--5--5-----|
 A|----------------------------------------|
 E|----------------------------------------|

|Guitar |
 
 e|----------------------------------------|
 B|--13--13---12--12--------13-------------|
 G|---12--12---12--12--12h14--14-12--------|
 D|----------12--12--12-----------12h14p12-|
 A|-10--10---------------------------------|
 E|----------------------------------------|

|(Played with a slide) |
 
 e|-/8-------/15\--------------------------|
 B|-/8-------/15\--------------------------|
 G|----------------------------------------|
 D|----------------------------------------|
 A|----------------------------------------|
 E|----------------------------------------|

[C] [Bb] [F] [G#6]  
 
 e|--8--8--8--6--6--6--5--5--5--4--4--4---|
 B|--8--8--8--6--6--6--6--6--6--6--6--6---|
 G|--x--x--x--x--x--x--x--x--x--x--x--x---|
 D|-10-10-10--8--8--8--7--7--7--6--6--6---|
 A|---------------------------------------|
 E|---------------------------------------|

We'll take the Zodiac Cadilliac around the north shore and then we'll head back
[G6] [G] [G6]  
 
 e|-3--3--3--7--7--7--3--3--3--3--3--3-------------|
 B|-5--5--5--8--8--8--5--5--5--5--5--5-------------|
 G|-x--x--x--x--x--x--x--x--x--x--x--x-------------|
 D|-5--5--5--9--9--9--5--5--5--5--5--5-------------|
 A|------------------------------------------------|
 E|------------------------------------------------|

|Guitar |
 
 e|------------------------------------------------|
 B|------------------------------------------------|
 G|-----------------------12----12----12----12-----|
 D|------------------12h14-12h14-12h14-12h14-------|
 A|------------------------------------------------|
 E|------------------------------------------------|

The sea turtles come to greet us
[C] [Bb] [F] [G#6]  
 
 e|--8--8--8--6--6--6--5--5--5--4--4--4---|
 B|--8--8--8--6--6--6--6--6--6--6--6--6---|
 G|--x--x--x--x--x--x--x--x--x--x--x--x---|
 D|-10-10-10--8--8--8--7--7--7--6--6--6---|
 A|---------------------------------------|
 E|---------------------------------------|

| Slide Guitar |
 
 e|-/8------------------------------------|
 B|-/8------------------------------------|
 G|---------------------------------------|
 D|---------------------------------------|
 A|---------------------------------------|
 E|---------------------------------------|

So lets get loaded tonight, we'll drink on the flight
[G6] [G] [G6]  
 
 e|-3--3--3--7--7--7--3--3--3--3--3--3-------------|
 B|-5--5--5--8--8--8--5--5--5--5--5--5-------------|
 G|-x--x--x--x--x--x--x--x--x--x--x--x-------------|
 D|-5--5--5--9--9--9--5--5--5--5--5--5-------------|
 A|------------------------------------------------|
 E|------------------------------------------------|

|Guitar |
 
 e|------------------------------------------------|
 B|------------------------------------13-15-13----|
 G|------------------------12-14-12-14-------------|
 D|-------------------12h14------------------------|
 A|------------------------------------------------|
 E|------------------------------------------------|

|Slide guitar |
 
 e|-/8-------/15\----\8----------------------------|
 B|-/8-------/15\----\8----------------------------|
 G|------------------------------------------------|
 D|------------------------------------------------|
 A|------------------------------------------------|
 E|------------------------------------------------|

Back home the honeymoon is over
[C] [Bb] [F] [G#6]  
 
 e|--8--8--8--6--6--6--5--5--5--4--4--4------------------------------|
 B|--8--8--8--6--6--6--6--6--6--6--6--6------------------------------|
 G|--x--x--x--x--x--x--x--x--x--x--x--x------------------------------|
 D|-10-10-10--8--8--8--7--7--7--6--6--6------------------------------|
 A|------------------------------------------------------------------|
 E|------------------------------------------------------------------|

|Guitar (Solo played over the four chords above) |
 
 e|------------------------------------------------------------------|
 B|---------13-15-13--------13-15-13-16b-15-13-----------------------|
 G|-14-12-14--------14-12-14-------------------14-12-----------------|
 D|--------------------------------------------------14-12-/14-12-10-|
 A|------------------------------------------------------------------|
 E|------------------------------------------------------------------|

| Slide Guitar |
 
 e|-/8---------------------------------------------------------------|
 B|-/8---------------------------------------------------------------|
 G|------------------------------------------------------------------|
 D|------------------------------------------------------------------|
 A|------------------------------------------------------------------|
 E|------------------------------------------------------------------|

[G6] [G] [G6]  
 
 e|-3--3--3--7--7--7--3--3--3--3--3--3-----|
 B|-5--5--5--8--8--8--5--5--5--5--5--5-----|
 G|-x--x--x--x--x--x--x--x--x--x--x--x-----|
 D|-5--5--5--9--9--9--5--5--5--5--5--5-----|
 A|----------------------------------------|
 E|----------------------------------------|

|Guitar |
 
 e|----------------------------------------|
 B|--------------------15-13---------------|
 G|-------------------------14-12----------|
 D|/14-12-10-/14-12-10-----------14-12-10--|
 A|----------------------------------------|
 E|----------------------------------------|

[F] [G] [G6]  
 
 e|-5--5--5--7--7--7--3--3--3--3--3--3-----| x2
 B|-6--6--6--8--8--8--5--5--5--5--5--5-----|
 G|-x--x--x--x--x--x--x--x--x--x--x--x-----|
 D|-7--7--7--9--9--9--5--5--5--5--5--5-----|
 A|----------------------------------------|
 E|----------------------------------------|

|Guitar |
 
 e|----------------------------------------|
 B|----------------------------------------|
 G|-------------------12h14-14-12----------|
 D|-------------------------------14-12----|
 A|----------------------------------------|
 E|----------------------------------------|

|(Played with a slide) |
 
 e|-/13------/15\----\8--------------------|
 B|-/13------/15\----\8--------------------|
 G|----------------------------------------|
 D|----------------------------------------|
 A|----------------------------------------|
 E|----------------------------------------|

You know I love you baby
And I know you love me too
[F] [G] [G6] [F]  
 
 e|-5--5--5--7--7--7--3--3--3--5--5--5-----|
 B|-6--6--6--8--8--8--5--5--5--6--6--6-----|
 G|-x--x--x--x--x--x--x--x--x--x--x--x-----|
 D|-7--7--7--9--9--9--5--5--5--7--7--7-----|
 A|----------------------------------------|
 E|----------------------------------------|

|(Played with a slide) |
 
 e|-/13------/15\----\8/------/13----------|
 B|-/13------/15\----\8/------/13----------|
 G|----------------------------------------|
 D|----------------------------------------|
 A|----------------------------------------|
 E|----------------------------------------|

But the fun that day didn't start until
[F] [G] [G6]  
 
 e|-5--5--5--7--7--7--3-|
 B|-6--6--6--8--8--8--5-|
 G|-x--x--x--x--x--x--x-|
 D|-7--7--7--9--9--9--5-|
 A|---------------------|
 E|---------------------|

|(slide guitar) |
 
 e|-/13------/15\----\8-|
 B|-/13------/15\----\8-|
 G|---------------------|
 D|---------------------|
 A|---------------------|
 E|---------------------|

We left on our honeymoon
[F] [G] [G]  
 
 e|-5--5--5--7--7--7--8--8--8--8--8--8-----| x2
 B|-6--6--6--8--8--8--8--8--8--8--8--8-----|
 G|-x--x--x--x--x--x--x--x--x--x--x--x-----|
 D|-7--7--7--9--9--9--10-10-10-10-10-10----|
 A|----------------------------------------|
 E|----------------------------------------|

We're on our honeymoon
We're on our honeymoon
[F] [G] [G6] [F]  
 
 e|-5--5--5--7--7--7--3--3--3--5--5--5-----|
 B|-6--6--6--8--8--8--5--5--5--6--6--6-----|
 G|-x--x--x--x--x--x--x--x--x--x--x--x-----|
 D|-7--7--7--9--9--9--5--5--5--7--7--7-----|
 A|----------------------------------------|
 E|----------------------------------------|

|(Played with a slide) |
 
 e|---------------------------/13----------|
 B|---------------------------/13----------|
 G|----------------------------------------|
 D|----------------------------------------|
 A|----------------------------------------|
 E|----------------------------------------|

The fun that day didn't start until
[F] [G] [G6]  
 
 e|-5--5--5--7--7--7--3-|
 B|-6--6--6--8--8--8--5-|
 G|-x--x--x--x--x--x--x-|
 D|-7--7--7--9--9--9--5-|
 A|---------------------|
 E|---------------------|

|(slide guitar) |
 
 e|-/13------/15\----\8-|
 B|-/13------/15\----\8-|
 G|---------------------|
 D|---------------------|
 A|---------------------|
 E|---------------------|

We left on our honeymoon
JASON'S EVERCLEAR TABS - http://members.tripod.com/~panec/

Important: The song above is NOT stored on the Chordie server. The original song is hosted at www.xguitar.com. Chordie works as a search engine and provides on-the-fly formatting. Chordie does not index songs against artists'/composers' will. To remove this song please click here.

Text color:
Chord color:
Chord grids: 
Font size:    
Page size: 

Bb C F G G#6 G6
Rate #1 of 2 versions

Login - add to songbook

SHARE PAGE  




You need to log in to post comments