Guitar Tabs, Chords and Lyrics
Major upgrade!! After one year development the new version of Chordie is now online! Please give feedback.


A Beautiful Life   Everclear

 
 e------0--0-----0----
 b----2------2-----2--
 g---3--------3------3
 d-0------------------
 a--------------------
 e--------------------

 


 Yeah


 


 

 
 e-6~--8~-----6~-----6~
 b-6~--8~-8~--6~-10~-6~
 g-7~--9~-8~--7~-10~-7~
 d-8~--10~8~--8~-10~-8~
 a---------------------
 e---------------------

 


 I Just Wanna Be Where The Sun Shines Down


 I Just Wanna Be Where The Sun Shines Down


 I Just wanna be with you


 


 

 
 E------------------------------------------------
 B------------------------------------------------
 G------------------------------------------------
 d-12-12-12-12-12-12-12-12-12-4-4-4-4-4-4-4-4-4-4-
 a-12-12-12-12-12-12-12-12-12-4-4-4-4-4-4-4-4-4-4-
 e-10-10-10-10-10-10-10-10-10-2-2-2-2-2-2-2-2-2-2-

 


 PM ????????????.................................


 Oh


 I really hate the way you push me away


 I Do Not like it when you shut me out


 I say I love you but I don?t really know you


 I wanna change it but I Don?t know how


 I wanna leave when it gets ugly and cold


 I wanna leave when but I got no where to go YEAH


 


 

 
 E---------------------------------------------
 B---------------------------------------------
 G------------8-8-X-X---------10-10-X-X--------
 d-8~----10~--8-8-X-X-8-8-X-X-10-10-X-X-8-8-X-X
 a-8~----10~--6-6-X-X-8-8-X-X-8--8--X-X-8-8-X-X
 e-6~----8~-----------6-6-X-X-----------6-6-X-X

 


 I Just wanna Be where the sun shines down


 I Just wanna be where the Sun Shines Down


 On A Beautiful Life


 I Just Wanna Find A Beautiful Life


 I Wanna be where the sun shines down


 I Just wanna find a beautiful Life


 


 [E----]  


 [B----]g-7-7


 d-8-8


 a-8-8


 e-6-6


 I Don?t Care Where We Go I Don?t Care What We Do


 


 

 
 E------------------------------------------------
 B------------------------------------------------
 G------------------------------------------------
 d-12-12-12-12-12-12-12-12-12-4-4-4-4-4-4-4-4-4-4-
 a-12-12-12-12-12-12-12-12-12-4-4-4-4-4-4-4-4-4-4-
 e-10-10-10-10-10-10-10-10-10-2-2-2-2-2-2-2-2-2-2-

 


 PM ????????????.................................


 You Seem To Make The Same Mistakes All The Time


 Sometimes Its Not So Hard To Understand Why


 You Say You Hate The Things That You Have Done


 Yeah You Have Been Running With Your Back to the sun


 You Wanna Find a place you don?t have to hide


 You Say you?re happy just to be alive


 


 

 
 E---------------------------------------------
 B---------------------------------------------
 G------------8-8-X-X---------10-10-X-X--------
 d-8~----10~--8-8-X-X-8-8-X-X-10-10-X-X-8-8-X-X
 a-8~----10~--6-6-X-X-8-8-X-X-8--8--X-X-8-8-X-X
 e-6~----8~-----------6-6-X-X-----------6-6-X-X


Important: The song above is NOT stored on the Chordie server. The original song is hosted at www.xguitar.com. Chordie works as a search engine and provides on-the-fly formatting. Chordie does not index songs against artists'/composers' will. To remove this song please click here.

This song is displayed as text-only. Transposing and tuning is only available for chordpro-songs.
Rate #2 of 3 versions

Login - add to songbook

SHARE PAGE  



You need to log in to post comments