Guitar Tabs, Chords and Lyrics
Major upgrade!! After one year development the new version of Chordie is now online! Please give feedback.


Father of Mine  Everclear

As recorded by Everclear on "So Much for the Afterglow"
Tabbed by Ashton Bailey (ashton_bailey@hotmail.com)
VERSION 1 - Tabbed by Ashton Bailey
Key:
pm = palm mute
\ = slide up towards the headstock
/ = slide down towards the body
fb = feedback
h = hammer
b = bend string
r = release string
rr = ring (let string ring)
v = strum down
^ = strum up
~ = Hold Note
X = Pick Scrape
Intro (Guitar 1, slightly distorted)
v v v v ^ v v v v v ^ v (Same strumming Pattern
Intro/Verse)
 
 e|-------------------------------------------|
 B|-------------------------------------------|
 G|--6-6-6-6-6-6-----------10-10-10-10-10-10--|
 D|--6-6-6-6-6-6-----------10-10-10-10-10-10--|
 A|--4-4-4-4-4-4-----------8--8--8--8--8--8---|
 E|-------------------------------------------| 

[Db5] Father of mine_[F5]_ Tell me where have you been ?
 
 e|----------------------------------------------|
 B|----------------------------------------------|
 G|--11-11-11-11-11-11--------------8-8-8-8-8-8--|
 D|--11-11-11-11-11-11--------------8-8-8-8-8-8--|
 A|--9--9--9--9--9--9---------------6-6-6-6-6-6--|
 E|----------------------------------------------| 

Y[Gb5]ou know, I just closed my eyes[Eb5]__ my whole world disapeared__
 
 e|-------------------------------------------|
 B|-------------------------------------------|
 G|--6-6-6-6-6-6-----------10-10-10-10-10-10--|
 D|--6-6-6-6-6-6-----------10-10-10-10-10-10--|
 A|--4-4-4-4-4-4-----------8--8--8--8--8--8---|
 E|-------------------------------------------| 

F[Db5]ather of mine, [F5] take me back to the day__
 
 e|----------------------------------------------|
 B|----------------------------------------------|
 G|--11-11-11-11-11-11--------------8-8-8-8-8-8--|
 D|--11-11-11-11-11-11--------------8-8-8-8-8-8--|
 A|--9--9--9--9--9--9---------------6-6-6-6-6-6--|
 E|----------------------------------------------| 

yeah, whe[Gb5]n I was still your golden boy,__[Eb5] back before you went away__
Main Verse (Guitars 1 and 2 slightly distorted)
 
 e|-------------------------------------------|
 B|-------------------------------------------|
 G|--6-6-6-6-6-6-----------10-10-10-10-10-10--|
 D|--6-6-6-6-6-6-----------10-10-10-10-10-10--|
 A|--4-4-4-4-4-4-----------8--8--8--8--8--8---|
 E|-------------------------------------------| 

I[Db5] remember blue__ skies[F5], walking the block
 
 e|----------------------------------------------|
 B|----------------------------------------------|
 G|--11-11-11-11-11-11--------------8-8-8-8-8-8--|
 D|--11-11-11-11-11-11--------------8-8-8-8-8-8--|
 A|--9--9--9--9--9--9---------------6-6-6-6-6-6--|
 E|----------------------------------------------| 

I l[Gb5]oved it when you held__ me hig[Eb5]h, I loved to hear you talk__
 
 e|-------------------------------------------|
 B|-------------------------------------------|
 G|--6-6-6-6-6-6-----------10-10-10-10-10-10--|
 D|--6-6-6-6-6-6-----------10-10-10-10-10-10--|
 A|--4-4-4-4-4-4-----------8--8--8--8--8--8---|
 E|-------------------------------------------| 

You wo[Db5]uld take me to the mov[F5]ie__, you would take me to the beach__
 
 e|------------------------------------------------|
 B|------------------------------------------------|
 G|--11-11-11-11-11-11-10-9-8-8-8-8-8-8-8-8-8-8-8--|
 D|--11-11-11-11-11-11-10-9-8-8-8-8-8-8-8-8-8-8-8--|
 A|--9--9--9--9--9--9--8--7-6-6-6-6-6-6-6-6-6-6-6--|
 E|------------------------------------------------| 

[Gb5] Take me to [F]a p[E]lace inside [Eb5]that is so hard to reach
Chorus Guitars 1 & 2 (Distorted)
 
 e|---------------------------------------------|
 B|---------------------------------------------|
 G|--6-6-6-6-6-6-6------------------------------|
 D|--6-6-6-6-6-6-6-6-6-4-4-3-3-3-3-3-3-4-4-6-6--|
 A|--4-4-4-4-4-4-4-6-6-4-4-3-3-3-3-3-3-4-4-6-6--|
 E|----------------4-4-2-2-1-1-1-1-1-1-2-2-4-4--| 

[Db5] [Ab] [Gb] [F] [Gb] [Ab] 
 
 e|---------------------------------------------|
 B|---------------------------------------------|
 G|--6-6-6-6-6-6-6------------------------------|
 D|--6-6-6-6-6-6-6-6-6-4-4-3-3-3-3-3-3-4-4-6-6--|
 A|--4-4-4-4-4-4-4-6-6-4-4-3-3-3-3-3-3-4-4-6-6--|
 E|----------------4-4-2-2-1-1-1-1-1-1-2-2-4-4--| 

[Db5] [Ab] [Gb] [F] [Gb] [Ab] 
Chorus Accordian riff (in the FoM single remixed versions)
 
 e|------------------------------------------------|
 B|------------------------------------------------|
 G|------------------------------------------------|
 D|--------------------------3-4-3-4-6-4-3-4-------|
 A|---4-6-4-6-8-6-4-6-(x2)---4-6-4-6-8-6-4-6-(x2)--|
 E|------------------------------------------------| 

Guitar 1 (Lead Fill #1)(Fully Distorted or Fuzz)
 
 e|----------------------------------------|
 B|----------------------------------------|
 G|--8b-6r---------6-----------------------|
 D|--------8-6h-8r---8-6h-8----------------|
 A|-------------------------6h-8-6-8-6-4~--|
 E|----------------------------------------| 

Guitar 2
 
 e|---------------------------------------------|
 B|---------------------------------------------|
 G|--6-6-6-6-6-6-6------------------------------|
 D|--6-6-6-6-6-6-6-6-6-4-4-3-3-3-3-3-3-4-4-6-6--|
 A|--4-4-4-4-4-4-4-6-6-4-4-3-3-3-3-3-3-4-4-6-6--|
 E|----------------4-4-2-2-1-1-1-1-1-1-2-2-4-4--| 

[Db5] [Ab] [Gb] [F] [Gb] [Ab] 
Main Verse (Guitars 1 and 2 slightly distorted)
 
 e|-------------------------------------------|
 B|-------------------------------------------|
 G|--6-6-6-6-6-6-----------10-10-10-10-10-10--|
 D|--6-6-6-6-6-6-----------10-10-10-10-10-10--|
 A|--4-4-4-4-4-4-----------8--8--8--8--8--8---|
 E|-------------------------------------------| 

[Db5] Father of mine__ [F5] tell me where did you go?___
 
 e|----------------------------------------------|
 B|----------------------------------------------|
 G|--11-11-11-11-11-11--------------8-8-8-8-8-8--|
 D|--11-11-11-11-11-11--------------8-8-8-8-8-8--|
 A|--9--9--9--9--9--9---------------6-6-6-6-6-6--|
 E|----------------------------------------------| 

Yeah, you[Gb5] had the world inside__ your h[Eb5]and__ but you did not seem to know__
 
 e|-------------------------------------------|
 B|-------------------------------------------|
 G|--6-6-6-6-6-6-----------10-10-10-10-10-10--|
 D|--6-6-6-6-6-6-----------10-10-10-10-10-10--|
 A|--4-4-4-4-4-4-----------8--8--8--8--8--8---|
 E|-------------------------------------------| 

[Db5] Father of mine__ [F5] tell me what do you__ see___
 
 e|----------------------------------------------|
 B|----------------------------------------------|
 G|--11-11-11-11-11-11--------------8-8-8-8-8-8--|
 D|--11-11-11-11-11-11--------------8-8-8-8-8-8--|
 A|--9--9--9--9--9--9---------------6-6-6-6-6-6--|
 E|----------------------------------------------| 

When [Gb5]you look back at your wast__ed[Eb5] life___ and you don't see me ?
Guitar 1 (Lead Fill #2)(Fully Distorted of Fuzz)
 
 e|--------------------|
 B|--------------------|
 G|--------------------|
 D|-------6------------|
 A|--6h-8---8-6h-8-4~--|
 E|--------------------|
 e|-------------------------------------------|
 B|-------------------------------------------|
 G|--6-6-6-6-6-6-----------10-10-10-10-10-10--|
 D|--6-6-6-6-6-6-----------10-10-10-10-10-10--|
 A|--4-4-4-4-4-4-----------8--8--8--8--8--8---|
 E|-------------------------------------------| 

[Db5] I was ten__ years ol[F5]d___ doing all that I___ could
 
 e|----------------------------------------------|
 B|----------------------------------------------|
 G|--11-11-11-11-11-11--------------8-8-8-8-8-8--|
 D|--11-11-11-11-11-11--------------8-8-8-8-8-8--|
 A|--9--9--9--9--9--9---------------6-6-6-6-6-6--|
 E|----------------------------------------------| 

Was-n't e[Gb5]asy for me_ to be a scared whi[Eb5]te boy in a black neigh_bor_hood___
 
 e|-------------------------------------------|
 B|-------------------------------------------|
 G|--6-6-6-6-6-6-----------10-10-10-10-10-10--|
 D|--6-6-6-6-6-6-----------10-10-10-10-10-10--|
 A|--4-4-4-4-4-4-----------8--8--8--8--8--8---|
 E|-------------------------------------------| 

Some_tim[Db5]es you would send me a[F5] birth_day card with a five dollar bill__
 
 e|------------------------------------------------|
 B|------------------------------------------------|
 G|--11-11-11-11-11-11-10-9-8-8-8-8-8-8-8-8-8-8-8--|
 D|--11-11-11-11-11-11-10-9-8-8-8-8-8-8-8-8-8-8-8--|
 A|--9--9--9--9--9--9--8--7-6-6-6-6-6-6-6-6-6-6-6--|
 E|------------------------------------------------| 

Y[Gb5]eah I never u[F]n_d[E]er_stood you[Eb5] then, and I guess I nev_er will__
Chorus Guitars 1 & 2 (Distorted)
 
 e|---------------------------------------------|
 B|---------------------------------------------|
 G|--6-6-6-6-6-6-6------------------------------|
 D|--6-6-6-6-6-6-6-6-6-4-4-3-3-3-3-3-3-4-4-6-6--|
 A|--4-4-4-4-4-4-4-6-6-4-4-3-3-3-3-3-3-4-4-6-6--|
 E|----------------4-4-2-2-1-1-1-1-1-1-2-2-4-4--| 

[Db5] [Ab] [Gb] [F] Da[Gb]d_dy[Ab] gave me a name
 
 e|---------------------------------------------|
 B|---------------------------------------------|
 G|--6-6-6-6-6-6-6------------------------------|
 D|--6-6-6-6-6-6-6-6-6-4-4-3-3-3-3-3-3-4-4-6-6--|
 A|--4-4-4-4-4-4-4-6-6-4-4-3-3-3-3-3-3-4-4-6-6--|
 E|----------------4-4-2-2-1-1-1-1-1-1-2-2-4-4--| 

[Db5] [Ab] [Gb] M[F]y dad, h[Gb]e ga[Ab]ve me a name
 
 e|---------------------------------------------|
 B|---------------------------------------------|
 G|--6-6-6-6-6-6-6------------------------------|
 D|--6-6-6-6-6-6-6-6-6-4-4-3-3-3-3-3-3-4-4-6-6--|
 A|--4-4-4-4-4-4-4-6-6-4-4-3-3-3-3-3-3-4-4-6-6--|
 E|----------------4-4-2-2-1-1-1-1-1-1-2-2-4-4--| 

[Db5] Then h[Ab]e wa[Gb]lked awa[F]y [Gb] Dad[Ab]_dy gave me a name_
 
 e|---------------------------------------------|
 B|---------------------------------------------|
 G|--6-6-6-6-6-6-6------------------------------|
 D|--6-6-6-6-6-6-6-6-6-4-4-3-3-3-3-3-3-4-4-6-6--|
 A|--4-4-4-4-4-4-4-6-6-4-4-3-3-3-3-3-3-4-4-6-6--|
 E|----------------4-4-2-2-1-1-1-1-1-1-2-2-4-4--| 

[Db5] Then h[Ab]e wa[Gb]lked awa[F]y [Gb] My [Ab]dad he gave me a name_
Chorus Accordian riff (in the FoM single remixed versions)
 
 e|------------------------------------------------|
 B|------------------------------------------------|
 G|------------------------------------------------|
 D|--------------------------3-4-3-4-6-4-3-4-------|
 A|---4-6-4-6-8-6-4-6-(x4)---4-6-4-6-8-6-4-6-(x4)--|
 E|------------------------------------------------| 

***OK here's the solo, you have to play it fast, notice that there is 2
bars for guitar 1 and only one for guiatar 2, so that means in the time it
takes to play guitar 2's part you must play both bars of guitar 1. Get it ?
Guitar 1 (Solo)(Distorted)
 
 e|--11b-9-------------------------------------------------------------|
 B|--------11-9---------------------------------------------9h11-9h11--|
 G|-------------10-8-6-8b-8b-8b-8r-6-------6-8-8b-8r-6-----------------|
 D|----------------------------------8-6-8-------------8-5/------------|
 A|--------------------------------------------------------------------|
 E|--------------------------------------------------------------------| 

Yeah
Guitar 1 Continued
 
 e|--9----9-11-9-11b-11b--|
 B|----11-----------------|
 G|-----------------------|
 D|-----------------------|
 A|-----------------------|
 E|-----------------------| 

Oh Yeah
Guitar 2
 
 e|-------------------------------------------|
 B|-------------------------------------------|
 G|--6-6-6-6-6-6-----------10-10-10-10-10-10--|
 D|--6-6-6-6-6-6-----------10-10-10-10-10-10--|
 A|--4-4-4-4-4-4-----------8--8--8--8--8--8---|
 E|-------------------------------------------| 

[Db5] [F5]  
Guitar 1
 
 e|------------------------------------------------------------------|
 B|--9-----6-9-6-----------------------------------------------------|
 G|----6-8-------8-6---6-8-8b-8r-6-----------------------------------|
 D|------------------8-------------8-6-------8h10-8-10-8-10-8--------|
 A|------------------------------------8-6h8------------------11-----|
 E|--------------------------------------------------------------9~--| 

Ohh !!
Guitar 2
 
 e|------------------------------------------------|
 B|------------------------------------------------|
 G|--11-11-11-11-11-11-10-9-8-8-8-8-8-8-8-8-8-8-8--|
 D|--11-11-11-11-11-11-10-9-8-8-8-8-8-8-8-8-8-8-8--|
 A|--9--9--9--9--9--9--8--7-6-6-6-6-6-6-6-6-6-6-6--|
 E|------------------------------------------------| 

[Gb5] [F] [E] [Eb5] 
Chorus Guitars 1 & 2 (Fully Distorted)
 
 e|---------------------------------------------|
 B|---------------------------------------------|
 G|--6-6-6-6-6-6-6------------------------------|
 D|--6-6-6-6-6-6-6-6-6-4-4-3-3-3-3-3-3-4-4-6-6--|
 A|--4-4-4-4-4-4-4-6-6-4-4-3-3-3-3-3-3-4-4-6-6--|
 E|----------------4-4-2-2-1-1-1-1-1-1-2-2-4-4--| 

[Db5] [Ab] [Gb] Dad-[F]dy gave [Gb]me a[Ab] name
 
 e|---------------------------------------------
 B|---------------------------------------------|
 G|--6-6-6-6-6-6-6------------------------------|
 D|--6-6-6-6-6-6-6-6-6-4-4-3-3-3-3-3-3-4-4-6-6--|
 A|--4-4-4-4-4-4-4-6-6-4-4-3-3-3-3-3-3-4-4-6-6--|
 E|----------------4-4-2-2-1-1-1-1-1-1-2-2-4-4--| 

[Db5] [Ab] [Gb] Dad-[F]dy gave [Gb]me a[Ab] name
 
 e|---------------------------------------------|
 B|---------------------------------------------|
 G|--6-6-6-6-6-6-6------------------------------|
 D|--6-6-6-6-6-6-6-6-6-4-4-3-3-3-3-3-3-4-4-6-6--|
 A|--4-4-4-4-4-4-4-6-6-4-4-3-3-3-3-3-3-4-4-6-6--|
 E|----------------4-4-2-2-1-1-1-1-1-1-2-2-4-4--| 

Th[Db5]en he walk[Ab]ed a[Gb]way [F] Dad-dy [Gb]gave[Ab] me a name
 
 e|---------------------------------------------|
 B|---------------------------------------------|
 G|--6-6-6-6-6-6-6------------------------------|
 D|--6-6-6-6-6-6-6-6-6-4-4-3-3-3-3-3-3-4-4-6-6--|
 A|--4-4-4-4-4-4-4-6-6-4-4-3-3-3-3-3-3-4-4-6-6--|
 E|----------------4-4-2-2-1-1-1-1-1-1-2-2-4-4--| 

Th[Db5]en he walk[Ab]ed a[Gb]way [F] my dad [Gb]he g[Ab]ave me a name
Chorus Accordian riff (in the FoM single remixed versions)
 
 e|------------------------------------------------|
 B|------------------------------------------------|
 G|------------------------------------------------|
 D|--------------------------3-4-3-4-6-4-3-4-------|
 A|---4-6-4-6-8-6-4-6-(x4)---4-6-4-6-8-6-4-6-(x4)--|
 E|------------------------------------------------| 

Bridge (Guitars 1 & 2) (Distorted)
 
 e|-------------------------------------|
 B|-------------------------------------|
 G|--6-6-6-6-6-6-----------6-6-6-6-6-6--|
 D|--6-6-6-6-6-6-----------6-6-6-6-6-6--|
 A|--4-4-4-4-4-4-----------4-4-4-4-4-4--|
 E|-------------------------------------| 

[Db5] Yeah__ [Db5] Yeah__
 
 e|--------------------------------------------|
 B|--------------------------------------------|
 G|--6-6-6-6-6-6-----------6-6-6-6-6-6-XX \\\--|
 D|--6-6-6-6-6-6-----------6-6-6-6-6-6-XX \\\--|
 A|--4-4-4-4-4-4-----------4-4-4-4-4-4-XX \\\--|
 E|--------------------------------------------| 

[Db5] Oh Yeah__[Db5]
Main Verse (Guitars 1 & 2)
 
 e|-------------------------------------------|
 B|-------------------------------------------|
 G|--6-6-6-6-6-6-----------10-10-10-10-10-10--|
 D|--6-6-6-6-6-6-----------10-10-10-10-10-10--|
 A|--4-4-4-4-4-4-----------8--8--8--8--8--8---|
 E|-------------------------------------------| 

[Db5] Father of mine_[F5]_ tell me where have you been ?
 
 e|----------------------------------------------|
 B|----------------------------------------------|
 G|--11-11-11-11-11-11--------------8-8-8-8-8-8--|
 D|--11-11-11-11-11-11--------------8-8-8-8-8-8--|
 A|--9--9--9--9--9--9---------------6-6-6-6-6-6--|
 E|----------------------------------------------| 

[Gb5] Yeah, I just closed my eyes_ [Eb5]and the world disa_ppear_ed
 
 e|-------------------------------------------|
 B|-------------------------------------------|
 G|--6-6-6-6-6-6-----------10-10-10-10-10-10--|
 D|--6-6-6-6-6-6-----------10-10-10-10-10-10--|
 A|--4-4-4-4-4-4-----------8--8--8--8--8--8---|
 E|-------------------------------------------| 

[Db5] Father of min[F5]e tell me how do you sleep
 
 e|----------------------------------------------|
 B|----------------------------------------------|
 G|--11-11-11-11-11-11--------------8-8-8-8-8-8--|
 D|--11-11-11-11-11-11--------------8-8-8-8-8-8--|
 A|--9--9--9--9--9--9---------------6-6-6-6-6-6--|
 E|----------------------------------------------| 

[Gb5]With the chil_dren you aband_one[Eb5]d and the wife I saw you beat ?
 
 e|-------------------------------------------|
 B|-------------------------------------------|
 G|--6-6-6-6-6-6-----------10-10-10-10-10-10--|
 D|--6-6-6-6-6-6-----------10-10-10-10-10-10--|
 A|--4-4-4-4-4-4-----------8--8--8--8--8--8---|
 E|-------------------------------------------| 

[Db5] I will never be sa[F5]fe, I will never be sane
 
 e|----------------------------------------------|
 B|----------------------------------------------|
 G|--11-11-11-11-11-11--------------8-8-8-8-8-8--|
 D|--11-11-11-11-11-11--------------8-8-8-8-8-8--|
 A|--9--9--9--9--9--9---------------6-6-6-6-6-6--|
 E|----------------------------------------------| 

[Gb5] I will always be wierd insid[Eb5]e, I will always be lame
 
 e|-------------------------------------------|
 B|-------------------------------------------|
 G|--6-6-6-6-6-6-----------10-10-10-10-10-10--|
 D|--6-6-6-6-6-6-----------10-10-10-10-10-10--|
 A|--4-4-4-4-4-4-----------8--8--8--8--8--8---|
 E|-------------------------------------------| 

[Db5] Now I am a grown m[F5]an with a child of my own__
 
 e|------------------------------------------------|
 B|------------------------------------------------|
 G|--11-11-11-11-11-11-10-9-8-8-8-8-8-8-8-8-8-8-8--|
 D|--11-11-11-11-11-11-10-9-8-8-8-8-8-8-8-8-8-8-8--|
 A|--9--9--9--9--9--9--8--7-6-6-6-6-6-6-6-6-6-6-6--|
 E|------------------------------------------------| 

A[Gb5]nd I swear th[F]at [E]I'm not gonn[Eb5]a let her know all the pain I have
known_____
Chorus Guitars 1 & 2 (Fully Distorted)
 
 e|---------------------------------------------|
 B|---------------------------------------------|
 G|--6-6-6-6-6-6-6------------------------------|
 D|--6-6-6-6-6-6-6-6-6-4-4-3-3-3-3-3-3-4-4-6-6--|
 A|--4-4-4-4-4-4-4-6-6-4-4-3-3-3-3-3-3-4-4-6-6--|
 E|----------------4-4-2-2-1-1-1-1-1-1-2-2-4-4--| 

____[Db5]__________[Ab]____[Gb]________[F]________[Gb]____[Ab]_____
 
 e|---------------------------------------------|
 B|---------------------------------------------|
 G|--6-6-6-6-6-6-6------------------------------|
 D|--6-6-6-6-6-6-6-6-6-4-4-3-3-3-3-3-3-4-4-6-6--|
 A|--4-4-4-4-4-4-4-6-6-4-4-3-3-3-3-3-3-4-4-6-6--|
 E|----------------4-4-2-2-1-1-1-1-1-1-2-2-4-4--| 

_____[Db5]__________[Ab]____[Gb]_ Oh y[F]eah !___[Gb]____[Ab]_____
 
 e|---------------------------------------------|
 B|---------------------------------------------|
 G|--6-6-6-6-6-6-6------------------------------|
 D|--6-6-6-6-6-6-6-6-6-4-4-3-3-3-3-3-3-4-4-6-6--|
 A|--4-4-4-4-4-4-4-6-6-4-4-3-3-3-3-3-3-4-4-6-6--|
 E|----------------4-4-2-2-1-1-1-1-1-1-2-2-4-4--| 

[Db5]then he wa[Ab]lked[Gb] away [F] Dad-d[Gb]y ga[Ab]ve me a name
 
 e|---------------------------------------------|
 B|---------------------------------------------|
 G|--6-6-6-6-6-6-6------------------------------|
 D|--6-6-6-6-6-6-6-6-6-4-4-3-3-3-3-3-3-4-4-6-6--|
 A|--4-4-4-4-4-4-4-6-6-4-4-3-3-3-3-3-3-4-4-6-6--|
 E|----------------4-4-2-2-1-1-1-1-1-1-2-2-4-4--| 

t[Db5]hen he wal[Ab]ked [Gb]away [F] My Da[Gb]d he[Ab] gave me a name
 
 e|---------------------------------------------|
 B|---------------------------------------------|
 G|--6-6-6-6-6-6-6------------------------------|
 D|--6-6-6-6-6-6-6-6-6-4-4-3-3-3-3-3-3-4-4-6-6--|
 A|--4-4-4-4-4-4-4-6-6-4-4-3-3-3-3-3-3-4-4-6-6--|
 E|----------------4-4-2-2-1-1-1-1-1-1-2-2-4-4--| 

[Db5] then he w[Ab]alke[Gb]d away [F] My dad [Gb]he g[Ab]ave me a name
 
 e|---------------------------------------------|
 B|---------------------------------------------|
 G|--6-6-6-6-6-6-6------------------------------|
 D|--6-6-6-6-6-6-6-6-6-4-4-3-3-3-3-3-3-4-4-6-6--|
 A|--4-4-4-4-4-4-4-6-6-4-4-3-3-3-3-3-3-4-4-6-6--|
 E|----------------4-4-2-2-1-1-1-1-1-1-2-2-4-4--| 

t[Db5]hen he wal[Ab]ked [Gb]away [F] My Dad[Gb] he [Ab]gave me a name
Chorus Accordian riff (in the FoM single remixed versions)
 
 e|-------------------------------------------------------------------|
 B|---------------------------------------------6-7-6-7-9--7-6-7------|
 G|---------------------------------------------6-8-6-8-10-8-6-8-(x4)-|
 D|------------------------3-4-3-4-6-4-3-4----------------------------|
 A|-4-6-4-6-8-6-4-6-(x4)---4-6-4-6-8-6-4-6-(x4)-----------------------|
 E|-------------------------------------------------------------------| 

Outro (Guitars 1 & 2) (Distorted)
 
 e|-------------------------------------|
 B|-------------------------------------|
 G|--6-6-6-6-6-6-----------6-6-6-6-6-6--|
 D|--6-6-6-6-6-6-----------6-6-6-6-6-6--|
 A|--4-4-4-4-4-4-----------4-4-4-4-4-4--|
 E|-------------------------------------| 

[Db5] Yeah__ [Db5] Yeah__
 
 e|--------------------------------------------|
 B|--------------------------------------------|
 G|--6-6-6-6-6-6-----------6-6-6-6-6-6-XX \\\--|
 D|--6-6-6-6-6-6-----------6-6-6-6-6-6-XX \\\--|
 A|--4-4-4-4-4-4-----------4-4-4-4-4-4-XX \\\--|
 E|--------------------------------------------| 

[Db5] Oh Yeah__[Db5]
Suggestion by GELB JOSH (jgelb@home.com)
hey, the father of mine tabs are wrong for the distorted part,
i'll just copy and paste because im lazy,
i have the so much for the afterglow book. here is whats on (your) page:
 
 D|--6-6-6-6-6-6-6-6-6-4-4-3-3-3-3-3-3-4-4-6-6--|
 A|--4-4-4-4-4-4-4-6-6-4-4-3-3-3-3-3-3-4-4-6-6--|
 E|----------------4-4-2-2-1-1-1-1-1-1-2-2-4-4--| 

The only difference is:
 
 B|------------------------------------|
 G|--6-6-6-6-6--5-5-3-2-2-2-2-2-3-3-5--|
 D|--6-6-6-6-6--6-6-4-3-3-3-3-3-4-4-6--|
 A|--4-4-4-4-4--6-6-4-3-3-3-3-3-4-4-6--|
 E|-------------4-4-2-1-1-1-1-1-2-2-4--| 

changes are made in the number of chords and the
formation, just adding a few notes to each, play it
distorted, it makes a big difference,
not as much on acoustic though.
Second Suggestion from GELB JOSH (jgeb@home.com)
hey jason, some dude e-mailed me asking about the father of mine solo,
so i typed it from the (SMFTA offical tabulature) book. its:
 
 e|11b-9--------------------------------------------------------------|
 B|------11-9-----------------------------------------------9h11-9h11-|
 G|-----------10-8-6-8b-8b-8b-8r-6-------6-8-8b-8r-6--6--5/-----------|
 D|--------------------------------8-6-8------------8-----------------|
 A|-------------------------------------------------------------------|
 E|-------------------------------------------------------------------|
 e|--9----9-11-9-11b-11b--|
 B|----11-----------------|
 G|-----------------------|
 D|-----------------------|
 A|-----------------------|
 E|-----------------------|
 e|-------------------------------------------------------------------|
 B|--9\-----6-9-6-----------------------------------------------------|
 G|----6-8-------8-6---6-8-8b-8r-6-----------------8------------------|
 D|------------------8-------------8-6-------8h/10-8-10-8-10-8--------|
 A|------------------------------------8-6h8---------10--------11-----|
 E|---------------------------------------------------------------9---| 

Josh
JASON'S EVERCLEAR TABS - http://members.tripod.com/~panec/

Important: The song above is NOT stored on the Chordie server. The original song is hosted at www.xguitar.com. Chordie works as a search engine and provides on-the-fly formatting. Chordie does not index songs against artists'/composers' will. To remove this song please click here.

Text color:
Chord color:
Chord grids: 
Font size:    
Page size: 

Ab Db5 E Eb5 F F5 Gb Gb5
Rate #1 of 4 versions

Login - add to songbook

SHARE PAGE  



You need to log in to post comments