Guitar Tabs, Chords and Lyrics
Major upgrade!! After one year development the new version of Chordie is now online! Please give feedback.


One Hit Wonder  Everclear

As recorded by Everclear on "So Much for the Afterglow"
Tabbed by Ashton Bailey (ashton_bailey@hotmail.com)
VERSION 1 - Tabbed by Ashton Bailey
Key:
pm = palm mute
\ = slide up towards the neck
/ = slide down towards the body
fb = feedback
h = hammer
b = bend string
r = ring (let string ring)
v = strum down
^ = strum up
~ = Hold Note
OK here's the chords, you put it together
Intro
(played during the drum intro)
Guitar 1 (slightly Distorted)
 
 e|--9---9---9---9---9---9--|
 B|-------------------------|
 G|-------------------------|
 D|-------------------------|
 A|-------------------------|
 E|-------------------------|

Then play Db (See chord below) a few times, then start verse
Main verse
Guitar 1 (Slighty Distorted)
 
 e|----- ---
 B|--9-- -2-

G|--10- strum a little -3- then back to Db
D|--11- then go to -4-
A|--11- -4-
 
 E|----- ---

[Db] [G#]  
Here's the bridge progression
Bridge 1
 
 e|---------------------|
 B|--9------2---4---2---|
 G|--10-----3---5---3---|
 D|--11-----4---6---4---|
 A|--11-----4---6---4---|
 E|---------------------|

[Db] [G#] [Ab] [G#]  
Bridge 2
 
 e|------------------------|
 B|--9------7-----4-----2--|
 G|--10-----8-----5-----3--|
 D|--11-----9-----6-----4--|
 A|--11-----9-----6-----4--|
 E|------------------------|

Song goes
intro Db 4x
main verse
bridge 1
main verse
bridge 2
main verse
Main verse (with heavy Distortion)
Bridge 1
ete..
the outro is just Db strummed over and over.
JASON'S EVERCLEAR TABS - http://members.tripod.com/~panec/

Important: The song above is NOT stored on the Chordie server. The original song is hosted at www.xguitar.com. Chordie works as a search engine and provides on-the-fly formatting. Chordie does not index songs against artists'/composers' will. To remove this song please click here.

Text color:
Chord color:
Chord grids: 
Font size:    
Page size: 

Ab Db G#
Rate #2 of 4 versions

Login - add to songbook

SHARE PAGE  



You need to log in to post comments