Guitar Tabs, Chords and Lyrics
Major upgrade!! After one year development the new version of Chordie is now online! Please give feedback.


When It All Goes Wrong Again  Everclear

As recorded by Everclear on "SFAAM #2: Good Time For A Bad Attitude"
Tabbed by Kyle Pouliot (TurboniumK@aol.com), Ken Hansen (khansen@fordham.edu),
Hugh Yik (hyik@nb.sympatico.ca) and Joe (FleetadmJw1@cs.com)
VERSION 1 - Tabbed by Kyle Pouliot (TurboniumK@aol.com)
There is like a phaser for the intro, just do some cool shit
like go to the head of your amp and punch in some harmonics
 
 e|--------------------------------|
 b|--------------------------------|
 g|------3-3-3-3-3-3-3-3-3-3-3-3-3-|
 D|-12/--4-4-4-4-4-4-4-4-4-4-4-4-4-| Repeat 4x
 A|-12/--4-4-4-4-4-4-4-4-4-4-4-4-4-|
 E|-10/--0h2-2-2-2-0h2-2-2-2-2-2-0-|

Then burst into this verse part
 
 e|-------------------------------------------------|
 b|-------------------------------------------------|
 g|-7-77-7--8-88-8-/-3-33-3-3-3-3-3-----------------|
 D|-8-88-8--9-99-9-/-4-44-4-4-4-4-4-----------------| Repeat 4x
 A|-8-88-8--9-99-9-/-4-44-4-4-4-4-4-----------------|
 E|-6-66-6--7-77-7-/-2-22-2-2-2-0-2-----------------|
 e|---------------------------------------------|
 b|---------------------------------------------|
 g|-3-3-3-3-3-3-3-3-3-3-3-3-3--3-3-3-3--4-4-4-4-|
 D|-4-4-4-4-4-4-4-4-4-4-4-4-4--3-3-3-3--4-4-4-4-|
 A|-4-4-4-4-4-4-4-4-4-4-4-4-4--1-1-1-1--2-2-2-2-|
 E|-0h2-2-2-2-0h2-2-2-2-2-2-0-------------------|
 e|---------------------------|
 b|---------------------------|
 g|-3-3-3-3-3-3-3-3-3-3-3-3-3-|
 D|-4-4-4-4-4-4-4-4-4-4-4-4-4-| Reapeat 4x
 A|-4-4-4-4-4-4-4-4-4-4-4-4-4-|
 E|-0h2-2-2-2-0h2-2-2-2-2-2-0-|

Back To This Verse
 
 e|-------------------------------------------------|
 b|-------------------------------------------------|
 g|-7-77-7--8-88-8-/-3-33-3-3-3-3-3-----------------|
 D|-8-88-8--9-99-9-/-4-44-4-4-4-4-4-----------------| Repeat 4x
 A|-8-88-8--9-99-9-/-4-44-4-4-4-4-4-----------------|
 E|-6-66-6--7-77-7-/-2-22-2-2-2-0-2-----------------|

Then This again
 
 e|---------------------------------------------|
 b|---------------------------------------------|
 g|-3-3-3-3-3-3-3-3-3-3-3-3-3--3-3-3-3--4-4-4-4-|
 D|-4-4-4-4-4-4-4-4-4-4-4-4-4--3-3-3-3--4-4-4-4-|
 A|-4-4-4-4-4-4-4-4-4-4-4-4-4--1-1-1-1--2-2-2-2-|
 E|-0h2-2-2-2-0h2-2-2-2-2-2-0-------------------|
 e|--------|
 b|--------|
 g|-3------|

D|-4-4-4--|
A|-4-4-4--|
E|-0-2-2--|
This cool ass part
 
 e|--------------|
 b|--------------|
 g|-7777-8888----|
 D|-8888-9999----|Repeat 3x
 A|-8888-9999----|
 E|-6666-7777----|

Whil Another guitar does this...
 
 e|-3~-~-~-----|
 b|-------8/0--|
 g|------------|
 D|------------|
 A|------------|
 E|------------|
 e|---------------------------------------------|
 b|---------------------------------------------|
 g|-3-3-3-3-3-3-3-3-3-3-3-3-3--3-3-3-3--4-4-4-4-|
 D|-4-4-4-4-4-4-4-4-4-4-4-4-4--3-3-3-3--4-4-4-4-|
 A|-4-4-4-4-4-4-4-4-4-4-4-4-4--1-1-1-1--2-2-2-2-|
 E|-0h2-2-2-2-0h2-2-2-2-2-2-0-------------------|

Now this little Australian sounding, with small distortion
 
 e|-------------------------------|
 b|-------------------------------|
 g|-1-/-3-3-3-/1-3-3-3-/-1--------|
 D|-2-/-5-5-5-/2-5-5-5-/-2--------|
 A|-2-/-5-5-5-/2-5-5-5-/-2--------|
 E|-------------------------------|
 e|---------------------------|
 b|---------------------------|
 g|-3-3-3-3-3-3-3-3-3-3-3-3-3-|
 D|-4-4-4-4-4-4-4-4-4-4-4-4-4-|
 A|-4-4-4-4-4-4-4-4-4-4-4-4-4-|
 E|-0h2-2-2-2-0h2-2-2-2-2-2-0-|

Then....
 
 e|----------------------------------|
 b|---11-10--6/---8-~-~--------------|
 g|----------------------------------|
 D|----------------------------------|
 A|----------------------------------|
 E|----------------------------------|

end on an E!!!
VERSION 2 - Tabbed by Ken Hansen (khansen@fordham.edu)
Drop D Tuning (Low E down to D)
Intro
 
 e|-----------------------------------------|
 B|-----------------------------------------|
 G|-----------------------------------------|
 D|--4--4--4--2--2--4--4--2--2--4--4--2--2--|
 A|--4--4--4--2--2--4--4--2--2--4--4--2--2--|
 D|--4--4--4--2--2--4--4--2--2--4--4--2--2--|

Verse:
 
 e|----------------------------------------------------------------------|
 B|----------------------------------------------------------------------|
 G|----------------------------------------------------------------------|
 D|--8-8-8-8---8-8-8--9-9-9-9---9-9-9--4-4-4-4---4-4-4--4-4-4-4---4-4-4--|
 A|--8-8-8-8---8-8-8--9-9-9-9---9-9-9--4-4-4-4---4-4-4--4-4-4-4---4-4-4--|
 D|--8-8-8-8---8-8-8--9-9-9-9---9-9-9--4-4-4-4---4-4-4--4-4-4-4---4-4-4--|

Chorus:
 
 e|--------------------------------------------------------|
 B|--------------------------------------------------------|
 G|--------------------------------------------------------|
 D|--4-4-4--2-2--4-4---4-4-4--2-2--4-4---7-7-7-7--9-9-9-9--|
 A|--4-4-4--2-2--4-4---4-4-4--2-2--4-4---7-7-7-7--9-9-9-9--|
 D|--4-4-4--2-2--4-4---4-4-4--2-2--4-4---7-7-7-7--9-9-9-9--|

Bridge:
 
 e|---------------------------------|
 B|---------------------------------|
 G|---------------------------------|
 D|--4-4-4-4--4-2-2-2--2-4-4-4--4---|
 A|--4-4-4-4--4-2-2-2--2-4-4-4--4---|
 D|--4-4-4-4--4-2-2-2--2-4-4-4--4---|

*The above part is played a bunch of times, and is palm muted
 
 e|-------------------------------------------------------------------------------------|
 B|-------------------------------------------------------------------------------------|
 G|-------------------------------------------------------------------------------------|
 D|--8-8-8-8-8-8-8-8--9-9-9-9-9-9-9-9--13-13-13-13-13-13-13-13--14-14-14-14-14-14-14-14-|
 A|--8-8-8-8-8-8-8-8--9-9-9-9-9-9-9-9--13-13-13-13-13-13-13-13--14-14-14-14-14-14-14-14-|
 D|--8-8-8-8-8-8-8-8--9-9-9-9-9-9-9-9--13-13-13-13-13-13-13-13--14-14-14-14-14-14-14-14-|
 e|-------------------------------------|
 B|-------------------------------------|
 G|-------------------------------------|
 D|--8-8-8-8-8-8-8-8--9-9-9-9-9--16\5---|
 A|--8-8-8-8-8-8-8-8--9-9-9-9-9--16\5---|
 D|--8-8-8-8-8-8-8-8--9-9-9-9-9--16\5---|

Progression:
Intro
Verse
Chorus
Verse
Intro
Verse
Chorus
Bridge
Chorus
Intro
VERSION 3 - Tabbed by Hugh Yik
Intro (also at 3:08)
 
 e|--------------------------|
 B|--------------------------|
 G|--------------------------|
 D|--9/11-11-11\9--9-9/11-11-|
 A|--7/9--9---9\7--7-7/9--9--|
 E|--------------------------|

Main RIff
[E] [F#] [E] [F#]  
 
 e|--------------------|repeat as many times
 b|--------------------|
 G|--------------------|
 D|-\2/4-4-4\2-2-2/4-4-|
 A|-\2/4-4-4\2-2-2/4-4-|
 E|-\0/2-2-2\0-0-0/2-2-|

Verse riff
[Bb] [B] [F#]  
 
 e|---------------------------------------------------------------|repeat
 B|---------------------------------------------------------------|
 G|--3-3-3-3--3-3-3-4-4-4-4--4-4-4--------------------------------|
 D|--3-3-3-3--3-3-3-4-4-4-4--4-4-4-4-4-4-4--4-4-4--4-4-4-4--4-4-4-|
 A|--1-1-1-1--1-1-1-2-2-2-2--2-2-2-4-4-4-4--4-4-4--4-4-4-4--4-4-4-|
 E|--------------------------------2-2-2-2--0-2-0--2-2-2-2--0-2-0-|

Pm.ed............................................................
Under Riff after half of the 3rd time playing the verse riff another
guitar plays this under:
 
 e|-------------------------------------------|
 B|-------------------------------------------|
 G|--9-9-9\8-8-8-8\6-6-6-6\4-4-4-4\3-3-3-3\2--|
 D|--x-x-x-x-x-x-x-x-x-x-x-x-x-x-x-x-x-x-x-x--|
 A|--7-7-7\6-6-6-6\4-4-4-4\2-2-2-2\1-1-1-1\0--|
 E|-------------------------------------------|

Chorus
[E] [F#] [E] [F#] [E] [F#] [E] [F#]  
 
 e|----------------------------------------------------------|repeat
 b|----------------------------------------------------------|
 G|----------------------------------------------------------|
 D|-2/4-4-4\2-2-2/4-4---2/4-4-4\2-2-2/4-4---7-7-7-7-2-2-2-2--|
 A|-2/4-4-4\2-2-2/4-4---2/4-4-4\2-2-2/4-4---7-7-7-7-2-2-2-2--|
 E|-0/2-2-2\0-0-0/2-2---0/2-2-2\0-0-0/2-2---5-5-5-5-0-0-0-0--|

Fill Riff 1 (2:10) (Where are you going to be?...when it all comes down.......)
v ^ v ^ v ^ v ^ v ^ v
 
 e|-------------------------|repeat...
 B|-------------------------|
 G|-------------------------|
 D|-------------------------|
 A|--2-2-2-2-2-2-2-2-2-2-2--|
 E|--0-2-2-2-2-0-0-0-0-2-2--|

heavy Pm.ed................
Fill riff 2 (2:29) (sitting on top of the world {when it all goes wrong again)....)
-- Just "Bb" to "B".. and repeat...--
Lead Fill (3:30)
 
 e|------------------------------------------------------|
 B|------------------------------------------------------|
 G|--/\9-9-9-9-9-9-9-8-8-8-8-8-8-6-6-6-6-6-6-4-4-4-4-4\--|
 D|------------------------------------------------------|
 A|------------------------------------------------------|
 E|------------------------------------------------------|

VERSION 4 - Tabbed by Joe (FleetadmJw1@cs.com)
Tuning: Down 1/2 Step: Eb Ab Gb Db Bb Eb
Intro:
 
 eb|------------------------------------------------|
 Bb|------------------------------------------------|
 Gb|-----2---2-/-4---4---4----2---2-/-4---4---4-----|
 Db|-----3---3-/-5---5---5----3---3-/-5---5---5-----|
 Ab|-----3---3-/-5---5---5----3---3-/-5---5---5-----|
 Eb|-----1---1-/-3---3---3----1---1-/-3---3---3-----|

Verse Riff:
 
 eb|---------------------------------------------------------------------------|
 Bb|---------------------------------------------------------------------------|
 Gb|--2---2-/-4---4---4----2---2-/-4---4---4----4---4---4---4---5---5---5---5--|
 Db|--3---3-/-5---5---5----3---3-/-5---5---5----4---4---4---4---5---5---5---5--|
 Ab|--3---3-/-5---5---5----3---3-/-5---5---5----2---2---2---2---3---3---3---3--|
 Eb|--1---1-/-3---3---3----1---1-/-3---3---3-----------------------------------|

Chorus:
 
 eb|---------------------------------------------------------------------------|
 Bb|---------------------------------------------------------------------------|
 Gb|-2---2-/-4---4---4----2---2-/-4---4---4----8---8---8---8----9---9---9---9--|
 Db|-3---3-/-5---5---5----3---3-/-5---5---5----9---9---9---9---10--10--10--10--|
 Ab|-3---3-/-5---5---5----3---3-/-5---5---5----9---9---9---9---10--10--10--10--|
 Eb|-1---1-/-3---3---3----1---1-/-3---3---3----7---7---7---7----8---8---8---8--|

Play This At "Where Are You Going To Be..."
 
 eb|----------------------------------------|
 Bb|----------------------------------------|
 Gb|----4---4---4---4---4---4---4---4-------|
 Db|----5---5---5---5---5---5---5---5-------|
 Ab|----5---5---5---5---5---5---5---5-------|
 Eb|----3---3---3---3---3---3---3---3-------|

pm.....................................
Then This:
 
 eb|-----------------------------------------------|
 Bb|-4---4---4---4---5---5---5---5-----------------|
 Gb|-4---4---4---4---5---5---5---5-----------------|
 Db|-4---4---4---4---5---5---5---5-----------------|
 Ab|-2---2---2---2---3---3---3---3-----------------|
 Eb|-----------------------------------------------|

Play This After The Riff Above:
 
 eb|--------------------------------|
 Bb|--------------------------------|
 Gb|--------------------------------|
 Db|---10---10-/-12--12---12-\-10---|
 Ab|----8----8-/-10--10---10-\--8---|
 Eb|--------------------------------|

Then This:
 
 eb|------------------------------------------------|
 Bb|------------------------------------------------|
 Gb|-----2---2-/-4---4---4----2---2-/-4---4---4-----|
 Db|-----3---3-/-5---5---5----3---3-/-5---5---5-----|
 Ab|-----3---3-/-5---5---5----3---3-/-5---5---5-----|
 Eb|-----1---1-/-3---3---3----1---1-/-3---3---3-----|

A Keyboard Plays The Following Part All The Way Through The Song:
 
 eb|-------------4--------1~-------------------|
 Bb|-------------------------------------------|
 Gb|-------------------------------------------|
 Db|-------------------------------------------|
 Ab|-------------------------------------------|
 Eb|-------------------------------------------|

JASON'S EVERCLEAR TABS - http://members.tripod.com/~panec/

Important: The song above is NOT stored on the Chordie server. The original song is hosted at www.xguitar.com. Chordie works as a search engine and provides on-the-fly formatting. Chordie does not index songs against artists'/composers' will. To remove this song please click here.

Text color:
Chord color:
Chord grids: 
Font size:    
Page size: 

B Bb E F#
Rate #1 of 2 versions

Login - add to songbook

SHARE PAGE  




You need to log in to post comments