Guitar Tabs, Chords and Lyrics
Major upgrade!! After one year development the new version of Chordie is now online! Please give feedback.


Pennsylvania Is....   Everclear

 
 e|-------------------------------
 b|-------------------------------
 g|------------8-----7------------
 d|------5-----x-----x------------
 a|------x-----6-----5------------
 e|------3------------------------

 


 


 strum pattern


 G:


 [/-//////]Eb:


 [/-/]D:


 [/-/]  


 chorus


 simply "B" and "C" power chords


 


 closing solo:


 

 
 e|----------------------------------------------------
 b|---------------------------------------16-15-14-12--
 g|-----12--14b--12--14--12--11--10--------------------
 d|----------------------------------------------------


Important: The song above is NOT stored on the Chordie server. The original song is hosted at www.xguitar.com. Chordie works as a search engine and provides on-the-fly formatting. Chordie does not index songs against artists'/composers' will. To remove this song please click here.

This song is displayed as text-only. Transposing and tuning is only available for chordpro-songs.
Rate #1 of 1 versions

Login - add to songbook

SHARE PAGE  




You need to log in to post comments