Guitar Tabs, Chords and Lyrics
Server problems seems to be fixed. Chordie has been experiencing problems with songs disappearing. These issues now seems to be fixed, but still verifying the fix. If you find anything strange, please email admin@chordie.com.


Evidence  Faith No More

 
 --------

Transcribed by: Uno Mulder (d.j.mulder@med.rug.nl)
Intro:
NC(Am) Wah Wah 4x Am Am/G
 
 e]-x-x-x-x-x-x-x-x-x-x-x-x-----x-x--|------------------|
 b]-x-x-x-x-x-x-x-x-x-x-x-x-----x-x--|-1----------------|
 g]---------------------------------.|-2----------------|
 d]---------------------------------.|-2----------------|
 a]----------------------------------|-0----------------|
 E]----------------------------------|------------------|

[Am/F#] [Am/F] [Em]  
 
 e]----------------|-0---------------| 0----------------
 b]-(1)------------|-3---------------|-3---------------
 g]-(2)------------|-0---------------|-0----------------
 d]-(2)------------|-2---------------|-2----------------
 a]-(0)------------|-----------------|------------------
 E]----------------|-----------------|------------------

===========================================================
1st Verse
Rhy. Fig. 1
[Am] [Am/G] [Am/F#] [Am/F] [Em]  
 
 e]----8----8---|----8----8---|----7----7---|----7----7--
 b]----10---10--|----10---10--|----8----8---|----8----8--
 g]-------------|-------------|-------------|------------
 d]-------------|-------------|-------------|------------
 a]-------------|-------------|-------------|------------
 E]-------------|-------------|-------------|------------

w/Rhy.Fig.1 (3x)
[Am] [Em]  
 
 e]-----|-----|--------------------|--------------------
 b]-----|-----|--------------------|--------------------
 g]-----|-----|--------------------|--------------------
 d]-----|-----|---------5-5h7------|-----5-5h7----------
 a]-----|-----|-----5h7------------|-5h7-------7--------
 E]-----|-----|-(7)--------------7-|--------------------

[Am] [Em]  
 
 e]-----|-----|--------------------|--------------------
 b]-----|-----|--------------------|-8xx8--xxx8-x8--x8s10
 g]-----|-----|--------------------|--------------------
 d]-----|-----|----------------5-x-|-5--------5---------
 a]-----|-----|--------------------|--------------------
 E]-----|-----|--------------------|--------------------

Am Em (piano a.f. guitar)
 
 e]-----|-----|--------------------|------------------|
 b]-(10)|-----|--------------------|------------------|
 g]-----|-----|--------------------|--------12-14---12|
 d]-----|-----|--------------------|----14------------|
 a]-----|-----|--------------------|------------------|
 E]-----|-----|--------------------|------------------|

[Am]Riff A(keyboard)
 
 e]----------------------|------------------------------
 b]----------------------|------------------------------
 g]-14----14----12----14-|-(14)---------12-14-----------
 d]----------------14----|-----------14-----------------
 a]----------------------|------------------------------
 E]----------------------|------------------------------

)Riff A1(Guitar) |
 
 e]-0--------------------|-(0)--------------------------
 b]-0--------------------|-(0)--------------------------
 g]-5--------------------|-(5)--------------------------
 d]-7--------------------|-(7)--------------------------
 a]----------------------|------------------------------
 E]----------------------|------------------------------

[Em]  
 
 e]-12-12--------------------|--------------------------
 b]--------------------------|--------------------------
 g]--------14--12--12-14-12--|(12)--------12-14--12-----
 d]--------------14----------|---------14---------------
 a]--------------------------|--------------------------
 E]--------------------------|--------------------------

) |
 
 e]--------------------------|--------------------------
 b]--------------------------|--------------------------
 g]--------------------------|--------------7-5--7------
 d]--------------------------|---------7s5--------------
 a]--------------------------|--------------------------
 E]--------------------------|--------------------------

[Am]  
 
 e]---------------------|-------------------------------
 b]---------------------|-------------------------------
 g]--14---14---12---14--|(14)----14--12----------------
 d]--------------14-----|---------------14--------------
 a]---------------------|-------------------------------
 E]---------------------|-------------------------------

) |
 
 e]---------------------|-------------------------------
 b]---------------------|-------------------------------
 g]-7h9~~7h9~~-7---7h9~~|(9)----7h8--7------------------
 d]--------------9------|--------------9~~--------------
 a]---------------------|-------------------------------
 E]---------------------|-------------------------------

Em (end RiffA)
 
 e]---------------------------|-------------------------
 b]---------------------------|-------------------------
 g]---------------------------|------------12-14--12----
 d]-12-12---12---12--12-14-12-|-12------14--------------
 a]----------------15---------|-------------------------
 E]---------------------------|-------------------------

) | (end RiffA1)
 
 e]---------------------------|-------------------------
 b]---------------------------|-------------------------
 g]---------------------------|-------------------------
 d]-7--7-----7---7s5-7s9s7----|(7)----------------------
 a]---------------------------|-------------------------
 E]---------------------------|------------------------

pre-chorus:
w/RiffA
[Am]  
 
 e]--------12-10s9-10-10-12----|------------------------
 b]-----10------------------13-|(13)--------------------
 g]--9-----9--7s-5-7--7s-9-----|------------------------
 d]-----7-------------------10-|(10)--------------------
 a]--7-------------------------|------------------------
 E]----------------------------|------------------------

[Em]  
 
 e]--------12s15--12----------------|-------------------
 b]---(12)--------------------------|-------------------
 g]---------9s12---9--13--12s13s12--|(12)---------------
 d]---(9)---------------------------|-------------------
 a]-------------------10---9s10s-9--|-(9)---------------
 E]---------------------------------|-------------------

[Am]  
 
 e]--------12--10s8--10--10s12------|-------------------
 b]-----10----------------------13--|(13)-------12s13---
 g]--9-----9----7s5--7----7s9-------|-------------------
 d]-----7-----------------------10--|(10)--------9s10---
 a]--7------------------------------|-------------------
 E]---------------------------------|-------------------

[Em]  
 
 e]-----------------------------|-----------------------
 b]--12----12s13--12--10--------|-----------------------
 g]-----------------------7s9s7-|(7)--------------------
 d]--9------9s10--9---7---------|-----------------------
 a]-----------------------5s7s5-|(5)--------------------
 E]-----------------------------|----------------(7)s---

chorus:
 
 e]----------------|--------------------|------------------
 b]-10--10--10--10-|-(7)s12-12-12----10-|------10--10--10--
 g]----------------|-(7)s12-12-12----10-|-9sd--------------
 d]--7---7---7---7-|-(8)s12-12-12----10-|-9sd---7---7---7--
 a]----------------|--------------------|------------------
 E]----------------|--------------------|------------------
 e](12)----------------------|------------|-------------
 b]-12--12--10--------10--10-|-10--(10)sd-|-------5-----
 g]-12--12--12----10---9---7-|--9--(-9)sd-|-------5-----
 d]-13--12--10----10--10--10-|-10--(10)sd-|-------------
 a]--------------------------|------------|-------------
 E]--------------------------|------------|-------------
 e]-----------------||----------------------------------
 b]-10--10--10--10--||----------------------------------
 g]----------------.||----------------------------------
 d]--7---7---7---7-.||----------------------------------
 a]-----------------||----------------------------------
 E]-----------------||----------------------------------
 e]-------5----------7------|------5-|------3----------5---
 b]-------------------------|--------|---------------------
 g]-4s5------5--5s7-------7-|-7s5----|-2s4-----4--4s5-----5
 d]-------------------------|--------|---------------------
 a]-------------------------|--------|---------------------
 E]-------------------------|--------|---------------------
 e]------7----------------10----------------------------
 b]-----------------------------------------------------
 g]-5s7--------7---7s10--------10sd---------------------
 d]-----------------------------------------------------
 a]-----------------------------------------------------
 E]-----------------------------------------------------

2nd verse
[Am]  
 
 e]------12-x-----12--------|---------x-------12--------
 b]------13-x-----13-----13-|-----------------13--13-13-
 g]-x-x---------------14----|--(0)--------x-x-14--14-14-
 d]-------------------------|---------------------------
 a]-------------------------|---------------------------
 E]-------------------------|---------------------------
 e]-------12-------------15--15-15-|------------------
 b]---x-x-12-x-x----12-x-12--12-15-|------------------
 g]--------------------------------|--------------------
 d]--------------------------------|--------------------
 a]--------------------------------|--------------------
 E]--------------------------------|--------------------
 e]----------12--------------12--12-15------------------
 b]---x-12-x-12--x-x---x-x-x-12--12---------------------
 g]-----------------------------------------------------
 d]-----------------------------------------------------
 a]-----------------------------------------------------
 E]-----------------------------------------------------
 e]---------12--x-----------12-12-|-------12-x-------12-12
 b]---------13----------13--13-13-|-------13-x-------13-13
 g]--x-x-x----------x-x-14--------|-x-x-x-------x-14------
 d]-------------------------------|-----------------------
 a]-------------------------------|-----------------------
 E]-------------------------------|-----------------------

[Em]  
 
 e]------12--x-x-x-x-x-x-12-12-12-12--------------------
 b]--x-x-12--x-x-x-x-x-x-12-12-12-12--------------------
 g]-----------------------------------------------------
 d]-----------------------------------------------------
 a]-----------------------------------------------------
 E]-----------------------------------------------------
 e]--------12-----------------12------------------------
 b]----x-x-12--x-x-x-x----x-----------------------------
 g]---------------------------12-14--12-----------------
 d]-----------------------14----------------------------
 a]-----------------------------------------------------
 E]-----------------------------------------------------

now play Riff A & A1
then play chorus again (w/rhy fig. 2),
last bar of chorus play
 
 e]-----------------------------------------------------
 b]-----------------------------------------------------
 g]-------------------5---5-7--5------------------------
 d]-------5---5-7p5h7---7-------------------------------
 a]-7p5h7---7-------------------------------------------
 E]-----------------------------------------------------

guitar solo:
[Am] [Em/A]  
 
 e]-----|-----------------------------|-----------------
 b]-----|-----------------------------|-----------------
 g]-7bu-|-----5-5h7-5h7~~----5----5h7-|-4~~---2h4-------
 d]-----|-5h7-----------------(7)-----|-----------------
 a]-----|-----------------------------|-----------------
 E]-----|-----------------------------|-----------------
 e]-----------------------------------------------------
 b]-8s10------------------10--10s8-8-8------------------
 g]-------8s7----5~~~~----------------------------------
 d]-5s7--------------------7---7s5-5-5------------------
 a]-------6s5----3~~~~----------------------------------
 E]-----------------------------------------------------

[Am]  
 
 e]---------------------------------------|-------------
 b]-8s10-10-10-10s8-----------------0-0---|-------------
 g]------------------8s7----5~~-----5-5sd-|-----------5-
 d]-5-s7--7--7--7s5-----------------------|-------5-7---
 a]------------------6s5----3~~-----3-3sd-|-5-6-7-------
 E]---------------------------------------|-------------

[Em/A]  
 
 e]-----------------------------------------------------
 b]-----------------------------------------------------
 g]-7bu-7bu-7bu5~~~-(5)sd-------------------------------
 d]-----------------------------------------------------
 a]-----------------------------------------------------
 E]-----------------------------------------------------
 e]---12p10--10---------------------------------------------
 b]--------12--12-10h12p10h12p10----------------------------
 g]-----------------------------12p9p12p9-------------------
 d]--------------------------------------12p10h12p10--------
 a]-------------------------------------------------12-10-12
 E]---------------------------------------------------------

[Am] [Am/E]  
 
 e]-------------|--------------------|------------------
 b]-------------|---------13~~-------|------------------
 g]-------------|---12s14------14p12-|------------------
 d]-------------|--------------------|------------------
 a]-12~~-(12)sd-|--------------------|-13p12~~-(12)sd---
 E]-------------|--------------------|------------------

[Am]  
 
 e]---12--10-----|----------------------|------------------
 b]---12--10--12-|-13-------------------|------------------
 g]---10--12--12-|-14--(14)sd---------5-|(5)---------8s7--5
 d]---10--10--12-|-----------------5-7--|----7--5-7--------
 a]--------------|-------------5--7-----|------------6s5--3
 E]--------------|----------------------|------------------
 e]----------------13--13----13-12-|-----10--10--------15---
 b]------------13--12--12----12-12-|-----10--10----13--13---
 g]-(5)--------12--10--10----10-10-|-----12--12----10-------
 d]------------10--10--10-(x)10-10-|--10-----10-(x)10--14---
 a]-(3)-----10---------------------|------------------------
 E]--------------------------------|------------------------

[F6] [Gadd9] [F6]  
 
 e]---|------10s12-10s8-10--10s12----|------------------
 b]---|---10----------------------13-|(13)------12s13s12
 g]---|-9----7-s9---7s5--7---7s9-----|------------------
 d]---|---7-----------------------10-|(10)-------9s10s9-
 a]---|-7----------------------------|------------------
 E]---|------------------------------|------------------

[Gadd9] [F6]  
 
 e]--------------------------------|--------------------
 b]-(12)------12s13--12--10--------|--------------------
 g]--------------------------7s9s7-|-(7)----------------
 d]--(9)-------9s10---9---7--------|---------------------
 a]--------------------------5s7s5-|-(5)----------------
 E]--------------------------------|--------------------

[Gadd9]  
 
 e]-----|-----5------|-----7----------------------------
 b]-----|------------|------------8-8-8-8-8-8-8-8-x-----
 g]---4-|-4s5------5-|-5s7-----7--7-7-7-7-7-7-7-7-x-----
 d]-----|------------|------------6-6-6-6-6-6-6-6-x-----
 a]-----|------------|------------7-7-7-7-7-7-7-7-x-----
 E]-----|------------|----------------------------------

now play Rhy. fig 2 (1st 7 bars only)
after 4 bars fill in with this:
 
 e]-15--15--|-15--15-
 b]-12--12--|-12--12-
 g]---------|--------
 d]---------|--------
 a]---------|--------
 E]---------|--------

now play this:
 
 e]-----------------------------------|-----------------
 b]---------------12------------------|-------10-10-10--
 g]------------12-12------------------|-----------------
 d]------12-14---x12-----------9------|-------7--7--7---
 a]-13h14------------------------xx10-|(10)-x-----------
 E]-------------------10h11h12--------|-----------------

play Rhy. fig. 2 (last 7 bars only),
and after 3 bars fill in with this:
 
 e]-----------------|-----------------------------------
 b]-----------------|----------5-5----------------------
 g]-----------------|-5--5h7---5-5----------------------
 d]------5-5h7--5h7-|-----------------------------------
 a]--0-7------------|-----------------------------------
 E]-----------------|-----------------------------------

and now it's free time:
 
 e]-----------------------------------------------------
 b]----------h13-17tp12h15p12h17-20tp17p12h17-20tp17p12h15
 g]h14-16tp12-------------------------------------------
 d]-----------------------------------------------------
 a]-----------------------------------------------------
 E]-----------------------------------------------------
 e]-----------------------------------------------------
 b]-----------------------------------------------------
 g]-16tp12h14p12----------------------------------------
 d]-------------h14p12h14-------------------------------
 a]-----------------------------------------------------
 E]-----------------------------------------------------

That's it!!!!!!
This covers the majority of the guitar parts.
Use a wah-wah for most parts; just listen to the record!
These are two chords that are used during the song:
[F6] [Gadd9]  
[1] [3]  
[3] [1]  
[2] [2]  
[3]x [3]x
x x
This is what the symbols stand for:
s = slide/gliss.
sd = slide down
h = hammer on
p = pull off
TP = tap with right hand finger or plectrum and pull off (the Eddie van Halen style)

Important: The song above is NOT stored on the Chordie server. The original song is hosted at www.xguitar.com. Chordie works as a search engine and provides on-the-fly formatting. Chordie does not index songs against artists'/composers' will. To remove this song please click here.

Text color:
Chord color:
Chord grids: 
Font size:    
Page size: 

Am Am/E Am/F Am/F# Em Em/A F6 Gadd9
Rate #1 of 8 versions

Jango Player

Login - add to songbook

SHARE PAGE  



You need to log in to post comments