Guitar Tabs, Chords and Lyrics
Major upgrade!! After one year development the new version of Chordie is now online! Please give feedback.


Desecrate  Fear Factory

Fear Factory - Desecrate
Submitted By: FearFactoryGodflesh_dude
EMail: quote_the_raven_nevamore@msn.com
[BEADF#B]  
 
 ----------------|-------------------------------------|-----------|-----------
 ----------------|-------------------------------------|-----------|-----------
 ----------------|-------------------------------------|-----------|-----------
 ----------------|------------555555554444444422222222-|-----------|-----------
 ---4--5--2------|---4--5--2---------------------------|---4--5--2-|-----------
 ---2--3--0------|---2--3--0---------------------------|---2--3--0-|-----------

[A] [B] [C] 
 
 ---------------------------------|------------------------------------|-------
 ---------------------------------|------------------------------------|-------
 ---------------------------------|------------------------------------|-------
 --------4------4-------4-------2-|------------------------------------|-------
 ---2-2--2-222--2--2-2--2--222--0-|-----------22222222--------22220000-|-------
 ---0-0----000-----0-0-----000----|---00000000--------00000000---------|-------

D . . ... . . ... E ................................
 
 ---------------------------|-------|--------------------------------------|---
 ---------------------------|-------|--------------------------------------|---
 ---------------------------|-------|--------------------------------------|---
 ---------------------------|-------|--------------------------------------|---
 ---2--4---7----2--4---7--6-|---2---|---2-2--2--7------6------7-------6----|---
 ---0--2---5v---0--2---5--4-|---0---|---0-0--0--5--0-0-4--0-0-5--0-0--4--0-|---

F G H . . . . . . . . . .
 
 ----------------|-------------------------------------------------------------
 ----------------|-------------------------------------------------------------
 ----------------|-------------------------------------------------------------
 ----------------|----------------------------------------------------22222222-
 ---2--4--5--6/7-|---33333333222222220000000000000000-3333333322222222---------
 ---0--2--3--4/5-|-------------------------------------------------------------

I . . . J
 
 ----------|-----------------------|-----------------------|-------------------
 ----------|-----------------------|-----------------------|-------------------
 ----------|-----------------------|-----------------------|-------------------
 -22222222-|---5--4--2---5--4------|---5--4--2---5--4------|-------------------
 ----------|---3--2--0---3--2--2-3-|---3--2--0---3--2--2-3-|-------------------
 ----------|-------------------0-1-|-------------------0-1-|-------------------

K . L . .
Song Structure:
Ax2 Gx1 Kx1
Bx4 Hx6 Lx1
Cx1 Ix4
Dx4 Hx5
Ex4 Fx8
Dx4 Gx1
Ex4 (6)
Fx2 Jx3

Important: The song above is NOT stored on the Chordie server. The original song is hosted at www.xguitar.com. Chordie works as a search engine and provides on-the-fly formatting. Chordie does not index songs against artists'/composers' will. To remove this song please click here.

Text color:
Chord color:
Chord grids: 
Font size:    
Page size: 

A B C
Rate #1 of 1 versions

Jango Player

Login - add to songbook

SHARE PAGE  




You need to log in to post comments