Guitar Tabs, Chords and Lyrics
Server problems seems to be fixed. Chordie has been experiencing problems with songs disappearing. These issues now seems to be fixed, but still verifying the fix. If you find anything strange, please email admin@chordie.com.


March Into Fire   Forbidden

 
 E -----------------------
 B -----------------------
 G ---------------9--9----
 D -5---4---3--2--9--9----
 A -5---4---3--2--7--7----
 E -3---2---1--0----------

 


 


 Riff 1


 


 

 
 E ------------------------------------------------------------------------------------------------------------
 B ------------------------------------------------------------------------------------------------------------
 G -------------------------3----------------------------5---------------------------7-----------------9--9----
 D -----------5-------------3-------------5--------------5-------------5-------------7---5---4---3--2--9--9----
 A -----------5-------------1-------------5--------------3-------------5-------------5---5---4---3--2--7--7----
 E -0-2-2-2-2-3---0-2-2-2-2-----0-2-2-2-2-3----0-2-2-2-2-----0-2-2-2-2-3---0-2-2-2-2-----3---2---1--0----------

 


 


 Riff 1A


 


 

 
 E -----------------------------------------------------------------------------------------------
 B -----------------------------------------------------------------------------------------------
 G ---------------------3-----------------------5-----------------------7-----------------9--9----
 D ---------5-----------3-----------5-----------5-----------5-----------7---5---4---3--2--9--9----
 A ---------5-----------1-----------5-----------3-----------5-----------5---5---4---3--2--7--7----
 E -0-2-2-2-3---0-2-2-2-----0-2-2-2-3---0-2-2-2-----0-2-2-2-3---0-2-2-2-----3---2---1--0----------

 


 


 Riff 2


 


 

 
 E -----------------------------------------------------------------------------------------------
 B -----------------------------------------------------------------------------------------5-----
 G -----------------------------------------------------------------------------------------5--5--
 D -4----------------------3----------------------6-------------5-------------4-------------3--5--
 A -2-22-22-22-22-22-22-22---22-22-22-22-22-22-22---22-22-22-22---22-22-22-22---22-22-22-22----3--
 E -----------------------------------------------------------------------------------------------
 E --------------------------------------------------------------------------------------
 B --------------------------------------------------------------------------------------
 G --------------------------------------------------------------------------------5-----
 D -4----------------------3----------------------6-------------5-------------1====5--5--
 A -2-22-22-22-22-22-22-22---22-22-22-22-22-22-22---22-22-22-22---22-22-22-22------3--5--
 E -----------------------------------------------------------------------------------3--

 


 


 Riff 2A


 


 

 
 E -----------------------------------------------------------------------------------------------
 B -----------------------------------------------------------------------------------------5-----
 G -----------------------------------------------------------------------------------------5--5--
 D -4----------------------3----------------------6-------------5-------------4-------------3--5--
 A -2-22-22-22-22-22-22-22---22-22-22-22-22-22-22---22-22-22-22---22-22-22-22---22-22-22-22----3--
 E -----------------------------------------------------------------------------------------------
 E ---------------------------------------------------------------------------------------
 B ---------------------------------------------------------------------------------------
 G ---------------------------------------------------------------------------------5-----
 D -4----------------------3----------------------6-------------5-------------4S====5--5--
 A -2-22-22-22-22-22-22-22---22-22-22-22-22-22-22---22-22-22-22---22-22-22-22-------3--5--
 E ------------------------------------------------------------------------------------3--

 


 


 Riff 2B


 


 

 
 E -----------------------------------------------------------------------------------
 B -----------------------------------------------------------------------------------
 G -4----------------5--2----------------4--4----------------5--7----------8----------
 D -4----------------5--2----------------4--4----------------5--7----------8----------
 A -2-22-22-22-22-22-3--0-00-00-00-00-00-2--2-22-22-22-22-22-3--5-55-55-55-6-66-66-66-
 E -----------------------------------------------------------------------------------
 E --------------------------------------------------------------
 B --------------------------------------------------------------
 G -4----------------5--2----------------4--4--------7--7--8--8--
 D -4----------------5--2----------------4--4--------7--7--8--8--
 A -2-22-22-22-22-22-3--0-00-00-00-00-00-2--2--------5--5--6--6--
 E --------------------------------------2--2--------------------

 


 


 Riff 3


 


 

 
 E -----------------------------------------------------------------------
 B -----------------------------------------------------------------------
 G -9------10-9---9---9-----10--7-9-9------10-9---9--12-12-11-11-10-10-10-
 D -9------10-9---9---9-----10--7-9-9------10-9---9--12-12-11-11-10-10-10-
 A -7------8 -7---7---7-----8 --5-7-7------8 -7---7--10-10-9 -9 -8 -8 -8 -
 E ----0-0------0---0---0-0------------0-0------0-------------------------

 


 


 Riff 3A


 


 

 
 E -----------------------------------------------------------------------
 B -----------------------------------------------------------------------
 G -9------10-9---9---9-----10--7-9-9------10-9---9--12-12-11-11-10-10-10-
 D --------------------------------------------------12-12-11-11-10-10-10-
 A -7------8 -7---7---7-----8 --5-7-7------8 -7---7--10-10-9 -9 -8 -8 -8 -
 E ----0-0------0---0---0-0------------0-0------0-------------------------

 


 


 Riff 3B


 


 

 
 E ------------------------------------------------
 B ------------------------------------------------
 G -9------10-9---9---9-----10--7------------------
 D -9------10-9---9---9-----10--7--4-5-2-4-0-2---5-
 A -7------8 -7---7---7-----8 --5--------------4-5-
 E ----0-0------0---0---0-0----------------------3-

 


 


 Riff 4


 


 

 
 E -----------------------------------------------------------
 B -----------------------------------------------------------
 G -----------------------------------------------------------
 D -9------10----9--9----13----9------10----------------------
 A -9------10----9--9----13----9------10----7---------7-10-9==
 E -7--7-7-8 --7-7--7--7-11----7--7-7-8 --7----7-8-10---------

 


 


 Riff 4A


 


 

 
 E -----------------------------------------------------------
 B -----------------------------------------------------------
 G -----------------------------------------------------------
 D -9------10----9--9----13----9------10----------------------
 A -9------10----9--9----13----9------10----7-----------------
 E -7--7-7-8 --7-7--7--7-11----7--7-7-8 --7-----3-5-3-5-3-2-0-

 


 


 Riff 5


 


 

 
 E -------------------------------------------------------------------------------------------------------------------
 B -------------------------------------------------------------------------------------------------------------------
 G ---------------------------------------------5-----------------------------------------------------------------4-5-
 D -5-4-------------------8-7-------------------5-5-------------------5-4-------------------8-7-------------------4-5-
 A -5-4-------------------8-7-------------------3-5-------------------5-4-------------------8-7-------------------2-3-
 E -3-2-00-00-00-00-00-00-6-5-00-00-00-00-00-00---3-00-00-00-00-00-00-3-2-00-00-00-00-00-00-6-5-00-00-00-00-00-00-----
 E ----------------
 B ----------------
 G ----------------
 D ----------------
 A ----------------
 E -00-00-00-00-00-

 


 


 Riff 5A


 


 

 
 E ----------------------------------------------------------
 B ----------------------------------------------------------
 G ----------------------------------------------------------
 D -5-4-------------------8-7-------------------8----8----8--
 A -5-4-------------------8-7-------------------8----8----8--
 E -3-2-00-00-00-00-00-00-6-5-0-0-0-0-0-0-0-0-0-6--0-6--0-6--

 


 


 Riff 6


 


 

 
 E -----------------------------------------------------------------------------
 B -----------------------------------------------------------------------------
 G -----------------------------------------------------------------------------
 D ---------------------------------5------------------------------8----8----8--
 A -4----------5-------5-4------------------5-4----------5-------5-8----8----8--
 E ---22-22-22---22-22-----22-22-22---22-22-----22-22-22---22-22---6--0-6--0-6--

 


 


 Riff 7


 


 [1] [2] 


 

 
 E ----------------------------------------- ------------------------------------------- -----------------------
 B ----------------------------------------- ------------------------------------------- -----------------------
 G -9----------10----------7----------9--7-- -9----------10----------7----------12--10-- -9----10----7----9--7--
 D -9----------10----------7----------9--7-- -9----------10----------7----------12--10-- -9----10----7----9--7--
 A -7-77-77-77-8 -88-88-88-5-55-55-55-7--5-- -7-77-77-77-8 -88-88-88-5-55-55-55-10--8 -- -7----8 ----5----7--5--
 E ----------------------------------------- ------------------------------------------- -7----8 ----5----7--5--

 


 


 Riff 8


 


 [1] [2] 


 

 
 E ---------------------------------- ---------------------------------- -----------------------------------------------
 B ---------------------------------- ---------------------------------- -----------------------------------------------
 G -4----------5----------2----4----- -4----------5----------2----7--5-- -4----------5----------------------------------
 D -4----------5----------2----4--5-- -4----------5----------2----7--5-- -4----------5----------5-5-5-5-5-5-5-5-5-5-5-5-
 A -2-22-22-22-3-33-33-33-0----2--5-- -2-22-22-22-3-33-33-33-0----5--3-- -2-22-22-22-3-33-33-33-5-5-5-5-5-5-5-5-5-5-5-5-
 E -------------------------------3-- ---------------------------------- -----------------------3-3-3-3-3-3-3-3-3-3-3-3-
 |-3-| |-3-| |-3-| |-3-|

 


 


 Fill 2


 


 

 
 E ------- ---
 B ------- ---
 G ------- ---
 D -4--4-- -4-
 A -4--4-- -4-
 E -2--2-- -2-


Important: The song above is NOT stored on the Chordie server. The original song is hosted at www.xguitar.com. Chordie works as a search engine and provides on-the-fly formatting. Chordie does not index songs against artists'/composers' will. To remove this song please click here.

This song is displayed as text-only. Transposing and tuning is only available for chordpro-songs.
Rate #2 of 3 versions

Login - add to songbook

SHARE PAGE  



You need to log in to post comments