Guitar Tabs, Chords and Lyrics
Major upgrade!! After one year development the new version of Chordie is now online! Please give feedback.


Hackensack  Fountains of Wayne

Fountains of Wayne - Hackensack
Submitted By: Outsyder
EMail: bryan922@msn.com
Tuning: Standard (E A D G B E)
There's a way to do this with a capo on the third fret. but im lazy.
- Intro:
 
 E----------------------------------------------------------------
 B----------------------------------------------------------------
 G--------5-------------------------------------------------------
 D--5-3-5-----5-----3-5--5---------------6--5---------------------
 A----------------6----------------6-5-6--------6-----------------
 E----------------------------------------------------------------

Verse 1:
[Am]I used to know you...[C]
[F]You were in...[C] [E]
[Am]We sat together...[C]
[F]Fridays at...[C] [E]
[Am]Now I see your face...[C]
[F]Movies and...[C] [E]
[Am]I saw you talking...[C]
[F]On my TV...[C]
Chorus:
But [F]I will wait...[C]
As [F]long as I need...[G] [E]
And if you [Am]ever...[C]
[F]I'll be here for...[C]
Break:
 
 E----------------------------------------------------------------
 B----------------------------------------------------------------
 G--------5-------------------------------------------------------
 D--5-3-5-----5-----3-5--5---------------6--5---------------------
 A----------------6----------------6-5-6--------6-----------------
 E----------------------------------------------------------------

Verse 2:
[Am]I used to work at...[C]
[F]Now I work for...[C] [E]
[Am]Scraping the paint...[C]
[F]The hours...[C] [E]
[Am]Sometimes I wonder where[C]...
[F]Probably in...[C] [E]
[Am]That seems to be...[C]
[F]Else ends up...[C]
Chorus:
But [F]I will wait...[C]
As [F]long as I need...[G] [E]
And if you [Am]ever...[C]
[F]I'll be here for...[C]
Solo Part 1:
[F] [C] [E] [F] 
 
 E----------------------------------------------------------------
 B--------4---------------4---------------3---------------4-------
 G----------------------------------------------------------------
 D--5---------------5---------------3---------------5-------------
 A----6---------------6---------------5---------------6-----------
 E----------------------------------------------------------------

x2
Solo Part 2:
[F] [C] [G] [E] 
 
 E----------------------------------------------------------------
 B--------4---------------4---------------3---------------3-------
 G----------------------------------------------------------------
 D--5---------------5---------------3---------------3-------------
 A----6---------------6---------------5---------------5-----------
 E----------------------------------------------------------------

Chorus:
But [F]I will wait...[C]
As [F]long as I need...[G] [E]
And if you [Am]ever...[C]
[F]I'll be here for...[C]

Important: The song above is NOT stored on the Chordie server. The original song is hosted at www.xguitar.com. Chordie works as a search engine and provides on-the-fly formatting. Chordie does not index songs against artists'/composers' will. To remove this song please click here.

Text color:
Chord color:
Chord grids: 
Font size:    
Page size: 

Am C E F G
Rate #4 of 14 versions

Jango Player

Login - add to songbook

SHARE PAGE  




You need to log in to post comments