Guitar Tabs, Chords and Lyrics
Server problems seems to be fixed. Chordie has been experiencing problems with songs disappearing. These issues now seems to be fixed, but still verifying the fix. If you find anything strange, please email admin@chordie.com.


Short for Show  From Autumn to Ashes

As recorded by From Autumn To Ashes
(From the 2005 Album ABANDON YOUR FRIENDS)
Words and Music by From Autumn To Ashes
Transcribed by Robin Matthes
Gtr I (D A D G B E) - 'git 1 dist'
Gtr II (D A D G B E) - 'git 2 dist'
Intro
Q=200
N.C.
[4/4] Gtrs I, II
PM PM PM PM PM PM PM PM TP TP TP
E E E E E E E E E E E E E E E E W H H
 
 ||------------------|-----------------|----------|-----------|
 ||o-----------------|-----------------|----------|-----------|
 ||------------------|-----------------|----------|-----------|
 ||------------------|-----------------|----------|-----------|
 ||o-5---7---8---7---|-5---7---8---7---|----------|-----------|
 ||--0-0-0-0-0-0-0-0-|-0-0-0-0-0-0-0-0-|-4--------|-3----1----|

N.C.
PM PM PM PM PM PM PM PM TP TP TP
E E E E E E E E E E E E E E E E W H H
 
 |-----------------|-----------------|----------|------------||
 |-----------------|-----------------|----------|-----------o||
 |-----------------|-----------------|----------|------------||
 |-----------------|-----------------|----------|------------||
 |-5---7---8---7---|-5---7---8---7---|----------|-----------o||
 |-0-0-0-0-0-0-0-0-|-0-0-0-0-0-0-0-0-|-3--------|-1----4-----||

N.C. D5
 
 PM PM PM PM PM PM PM PM-------------------------|

E E E E E E E E E E E E E E E E q q q q q q q q
 
 |-----------------|-----------------|-------------|-------------||
 |-----------------|-----------------|-------------|-------------||
 |-----------------|-----------------|-------------|-------------||
 |-----------------|-----------------|-------------|-------------||
 |-5---7---8---7---|-5---7---8---7---|-0--0--0--0--|-0--0--0--0--||
 |-0-0-0-0-0-0-0-0-|-0-0-0-0-0-0-0-0-|-0--0--0--0--|-0--0--0--0--||

Pre-Verse
$
D5 N.C. D5 N.C. D5
Gtr I
[E] [E] [E] [E] [E] [E] [E] [E] [E] [E] [E] [E] [E] [E] [E] [E]  
 
 |--------------------|-----------------|
 |--------------------|-----------------|
 |-------10-10-10-----|-------9-9-9-----|
 |-0-0--------------0-|-0-0-----------0-|
 |-0-0--------------0-|-0-0-----------0-|
 |-0-0--------------0-|-0-0-----------0-|

|
| Gtr II
| E E E E E E E E E E E E E E E E
 
 |--------------------|-----------------|
 |-------10-10-10-----|-------8-8-8-----|
 |--------------------|-----------------|
 |-0-0--------------0-|-0-0-----------0-|
 |-0-0--------------0-|-0-0-----------0-|
 |-0-0--------------0-|-0-0-----------0-|

N.C.
[E] [E] [E] [E] [E] [E] [E] [E] [E] [E] [E] [E] [E] [E] [E] [E]  
 
 |-----------------|-----------------------|
 |-----------------|-----------------------|
 |-------7-7-7---7-|-9h10-10-10-9h10-10-10-|
 |-0-0-------------|-----------------------|
 |-0-0-------------|-----------------------|
 |-0-0-------------|-----------------------|

|
| E E E E E E E E E E E E E E E E
 
 |-----------------|-----------------------|
 |-------6-6-6---6-|-----------------------|
 |-----------------|-5h=7--7--7-5h=7--7--7-|
 |-0-0-------------|-----------------------|
 |-0-0-------------|-----------------------|
 |-0-0-------------|-----------------------|

D5 N.C. D5 N.C. D5
[E] [E] [E] [E] [E] [E] [E] [E] [E] [E] [E] [E] [E] [E] [E] [E]  
 
 |--------------------|--------------------|
 |--------------------|--------------------|
 |-------10-10-10-----|-------12-12-12-----|
 |-0-0--------------0-|-0-0--------------0-|
 |-0-0--------------0-|-0-0--------------0-|
 |-0-0--------------0-|-0-0--------------0-|

|
| E E E E E E E E E E E E E E E E
 
 |--------------------|--------------------|
 |-------10-10-10-----|-------11-11-11-----|
 |--------------------|--------------------|
 |-0-0--------------0-|-0-0--------------0-|
 |-0-0--------------0-|-0-0--------------0-|
 |-0-0--------------0-|-0-0--------------0-|

N.C.
[E] [E] [E] [E] [E] [E] [E] [E] [E] [E] [E] [E] [E] [E] [E] [E]  
 
 |---------------------|-----------------------||
 |---------------------|-----------------------||
 |-------10-10-10---10-|-9h10-10-10-9h10-10-10-||
 |-0-0-----------------|-----------------------||
 |-0-0-----------------|-----------------------||
 |-0-0-----------------|-----------------------||

|
| E E E E E E E E E E E E E E E E
 
 |---------------------|-----------------------||
 |-------10-10-10---10-|-----------------------||
 |---------------------|-5h=7--7--7-5h=7--7--7-||
 |-0-0-----------------|-----------------------||
 |-0-0-----------------|-----------------------||
 |-0-0-----------------|-----------------------||

Verse
D5 N.C. D5 N.C. D5
[E] [E] [E] [E] [E] [E] [E] [E] [E] [E] [E] [E] [E] [E] [E] [E]  
 
 ||---------------------|-----------------|
 ||o--------------------|-----------------|
 ||--------10-10-10-----|-------9-9-9-----|
 ||--0-0--------------0-|-0-0-----------0-|
 ||o-0-0--------------0-|-0-0-----------0-|
 ||--0-0--------------0-|-0-0-----------0-|

|
| E E E E E E E E E E E E E E E E
 
 ||---------------------|-----------------|
 ||o-------10-10-10-----|-------8-8-8-----|
 ||---------------------|-----------------|
 ||--0-0--------------0-|-0-0-----------0-|
 ||o-0-0--------------0-|-0-0-----------0-|
 ||--0-0--------------0-|-0-0-----------0-|

N.C.
[E] [E] [E] [E] [E] [E] [E] [E] [E] [E] [E] [E] [E] [E] [E] [E]  
 
 |-----------------|------------------------|
 |-----------------|------------------------|
 |-------7-7-7---7-|-9h10-10-10-9h10-10-10--|
 |-0-0-------------|------------------------|
 |-0-0-------------|------------------------|
 |-0-0-------------|------------------------|

|
| E E E E E E E E E E E E E E E E
 
 |-----------------|------------------------|
 |-------6-6-6---6-|------------------------|
 |-----------------|-5h=7--7--7-5h=7--7--7--|
 |-0-0-------------|------------------------|
 |-0-0-------------|------------------------|
 |-0-0-------------|------------------------|

D5 N.C. D5 N.C. D5
[E] [E] [E] [E] [E] [E] [E] [E] [E] [E] [E] [E] [E] [E] [E] [E]  
 
 |--------------------|--------------------|
 |--------------------|--------------------|
 |-------10-10-10-----|-------12-12-12-----|
 |-0-0--------------0-|-0-0--------------0-|
 |-0-0--------------0-|-0-0--------------0-|
 |-0-0--------------0-|-0-0--------------0-|

|
| E E E E E E E E E E E E E E E E
 
 |--------------------|--------------------|
 |-------10-10-10-----|-------11-11-11-----|
 |--------------------|--------------------|
 |-0-0--------------0-|-0-0--------------0-|
 |-0-0--------------0-|-0-0--------------0-|
 |-0-0--------------0-|-0-0--------------0-|

To Coda
N.C.
[E] [E] [E] [E] [E] [E] [E] [E] [E] [E] [E] [E] [E] [E] [E] [E]  
 
 |---------------------|------------------------||
 |---------------------|-----------------------o||
 |-------10-10-10---10-|-9h10-10-10-9h10-10-10--||
 |-0-0-----------------|------------------------||
 |-0-0-----------------|-----------------------o||
 |-0-0-----------------|------------------------||

|
| E E E E E E E E E E E E E E E E
 
 |---------------------|------------------------||
 |-------10-10-10---10-|-----------------------o||
 |---------------------|-5h=7--7--7-5h=7--7--7--||
 |-0-0-----------------|------------------------||
 |-0-0-----------------|-----------------------o||
 |-0-0-----------------|------------------------||

Chorus
D.S. al Coda
[F5]Gtrs I, II[Eb5] [Gb5] [D5]
PM PM| PM| PM|
Q Q Q Q Q Q E Q E +E E Q E E Q E E Q E E Q 4x
 
 ||--------------|--------------|-----------------|-----------------||
 ||o-------------|--------------|-----------------|----------------o||
 ||--------------|--------------|-----------------|-----------------||
 ||--3--3--3--3--|-3--3--1-1--4-|-(4)---0------0--|-----0------0----||
 ||o-3--3--3--3--|-3--3--1-1--4-|-(4)-0-0--0-0-0--|-0-0-0--0-0-0---o||
 ||--3--3--3--3--|-3--3--1-1--4-|-(4)-0-0--0-0-0--|-0-0-0--0-0-0----||

2nd Chorus
&
[F5]Gtrs I, II[Eb5] [Gb5] [D5]
PM PM| PM| PM|
Q Q Q Q Q Q E Q E +E E Q E E Q E E Q E E Q 3x
 
 ||--------------|--------------|-----------------|-----------------||
 ||o-------------|--------------|-----------------|----------------o||
 ||--------------|--------------|-----------------|-----------------||
 ||--3--3--3--3--|-3--3--1-1--4-|-(4)---0------0--|-----0------0----||
 ||o-3--3--3--3--|-3--3--1-1--4-|-(4)-0-0--0-0-0--|-0-0-0--0-0-0---o||
 ||--3--3--3--3--|-3--3--1-1--4-|-(4)-0-0--0-0-0--|-0-0-0--0-0-0----||

H.=H
[F5] [D5] [Eb5] [Gb5] [D5]PM PM| PM| PM|
Q Q Q Q Q Q E Q E +E E Q E E Q E E Q E E Q
 
 |-------------|--------------|-----------------|---------------||
 |-------------|--------------|-----------------|---------------||
 |-------------|--------------|-----------------|---------------||
 |-3--3--3--3--|-3--3--1-1--4-|-(4)---0------0--|-----0------0--||
 |-3--3--3--3--|-3--3--1-1--4-|-(4)-0-0--0-0-0--|-0-0-0--0-0-0--||
 |-3--3--3--3--|-3--3--1-1--4-|-(4)-0-0--0-0-0--|-0-0-0--0-0-0--||

Bridge
Slower Q=130
D5 Bb5 A5 N.C.
Gtr I
|-3--| |-3-|
W H. Q W E E E E E E E E E E 4x
 
 ||------------|--------------|-----------|------------------------------||
 ||o-----------|--------------|-----------|-----------------------------o||
 ||------------|-15-------15--|-14--------|------------------------------||
 ||---0--------|--------------|-----------|------------------------------||
 ||o--0--------|-13-------13--|-12--------|-12-13-12-10-8-10-12-10-8-7--o||
 ||---0--------|--------------|-----------|------------------------------||

|
| Gtr II
| W W W H H 4x
 
 ||------------|--------------|-----------|------------------------------||
 ||o-----------|--------------|-----------|-----------------------------o||
 ||--10--------|--------------|-----------|--6-------------7-------------||
 ||------------|--3-----------|--2--------|------------------------------||
 ||o--8--------|--1-----------|--0--------|--4-------------5------------o||
 ||------------|--------------|-----------|------------------------------||

Outro
H=H
[D5]Gtrs I, II
 
 PM------------| PM-----------------------

S S E S S E E E E E S S E S S E E E E E
 
 |---------------------|---------------------|
 |---------------------|---------------------|
 |---------------------|---------------------|
 |---------------------|---------------------|
 |-0-0-0-0-0-0---0---0-|-0-0-0-0-0-0---0-0-0-|
 |-0-0-0-0-0-0---0---0-|-0-0-0-0-0-0---0-0-0-|

N.C.
 
 ---------------| PM

S S E S S E E E E E S S E S S E S S E Q
 
 |---------------------|----------------------|
 |---------------------|----------------------|
 |---------------------|----------------------|
 |---------------------|-------------------1--|
 |-0-0-0-0-0-0---0---0-|-5h6p5-3h5p3-1h3p1----|
 |-0-0-0-0-0-0---0---0-|----------------------|

Q=135 H=H
[D5]  
 
 PM------------| PM-----------------------

S S E S S E E E E E S S E S S E E E E E
 
 |---------------------|---------------------|
 |---------------------|---------------------|
 |---------------------|---------------------|
 |---------------------|---------------------|
 |-0-0-0-0-0-0---0---0-|-0-0-0-0-0-0---0-0-0-|
 |-0-0-0-0-0-0---0---0-|-0-0-0-0-0-0---0-0-0-|

N.C.
 
 ---------------| PM

S S E S S E E E E E S S E S S E S S E Q
 
 |---------------------|----------------------|
 |---------------------|----------------------|
 |---------------------|----------------------|
 |---------------------|-------------------1--|
 |-0-0-0-0-0-0---0---0-|-5h6p5-3h5p3-1h3p1----|
 |-0-0-0-0-0-0---0---0-|----------------------|

Q=145
[D5]  
 
 PM------------| PM-----------------------

S S E S S E E E E E S S E S S E E E E E
 
 ||----------------------|---------------------|
 ||o---------------------|---------------------|
 ||----------------------|---------------------|
 ||----------------------|---------------------|
 ||o-0-0-0-0-0-0---0---0-|-0-0-0-0-0-0---0-0-0-|
 ||--0-0-0-0-0-0---0---0-|-0-0-0-0-0-0---0-0-0-|

N.C.
 
 ---------------| PM

S S E S S E E E E E S S E S S E S S E Q 3x
 
 |---------------------|-------------------------||
 |---------------------|------------------------o||
 |---------------------|-------------------------||
 |---------------------|-------------------1-----||
 |-0-0-0-0-0-0---0---0-|-5h6p5-3h5p3-1h3p1------o||
 |-0-0-0-0-0-0---0---0-|-------------------------||

[D5]q q q q q q q q q q q q q q q q
 
 |-------------|-------------|-------------|-------------|
 |-------------|-------------|-------------|-------------|
 |-------------|-------------|-------------|-------------|
 |-------------|-------------|-------------|-------------|
 |-0--0--0--0--|-0--0--0--0--|-0--0--0--0--|-0--0--0--0--|
 |-0--0--0--0--|-0--0--0--0--|-0--0--0--0--|-0--0--0--0--|

|
| Gtr II
| TP TP TP
| q q q q q q q q W H H
 
 |-------------|-------------|-------------|-------------|
 |-------------|-------------|-------------|-------------|
 |-------------|-------------|-------------|-------------|
 |-------------|-------------|-------------|-------------|
 |-0--0--0--0--|-0--0--0--0--|-------------|-------------|
 |-0--0--0--0--|-0--0--0--0--|-4-----------|-3-----1-----|

[D5]q q q q q q q q q q q q q q q q
 
 |-------------|-------------|-------------|-------------|
 |-------------|-------------|-------------|-------------|
 |-------------|-------------|-------------|-------------|
 |-------------|-------------|-------------|-------------|
 |-0--0--0--0--|-0--0--0--0--|-0--0--0--0--|-0--0--0--0--|
 |-0--0--0--0--|-0--0--0--0--|-0--0--0--0--|-0--0--0--0--|

|
| TP TP TP TP TP TP
| W H H W H H
 
 |-------------|-------------|-------------|-------------|
 |-------------|-------------|-------------|-------------|
 |-------------|-------------|-------------|-------------|
 |-------------|-------------|-------------|-------------|
 |-------------|-------------|-------------|-------------|
 |-4-----------|-3-----1-----|-4-----------|-3-----1-----|

Ending
[D5]q q q q q q q q q q q q q q q q
 
 ||--------------|---------------|---------------|-----------------||
 ||o-------------|---------------|---------------|----------------o||
 ||--------------|---------------|---------------|-----------------||
 ||--------------|---------------|---------------|-----------------||
 ||o-0--0--0--0--|--0---0--0--0--|--0---0--0--0--|--0---0--0--0---o||
 ||--0--0--0--0--|--0---0--0--0--|--0---0--0--0--|--0---0--0--0----||

|
| TP TP TP TP
| W +W +W +W
 
 ||--------------|---------------|---------------|-----------------||
 ||o-------------|---------------|---------------|----------------o||
 ||--------------|---------------|---------------|-----------------||
 ||--------------|---------------|---------------|-----------------||
 ||o-------------|---------------|---------------|----------------o||
 ||--0-----------|-(0)-----------|-(0)-----------|-(0)-------------||

[D5]Gtrs I, II
W +W +W +W
 
 |----------|------------|------------|--------|
 |----------|------------|------------|--------|
 |----------|------------|------------|--------|
 |-0--------|-(0)--------|-(0)--------|-(0)----|
 |-0--------|-(0)--------|-(0)--------|-(0)----|
 |-0--------|-(0)--------|-(0)--------|-(0)----|

[(D5)]+W +W +W +W
 
 |------------|------------|------------|--------*|
 |------------|------------|------------|--------*|
 |------------|------------|------------|--------*|
 |-(0)--------|-(0)--------|-(0)--------|-(0)----*|
 |-(0)--------|-(0)--------|-(0)--------|-(0)----*|
 |-(0)--------|-(0)--------|-(0)--------|-(0)----*|


Important: The song above is NOT stored on the Chordie server. The original song is hosted at www.xguitar.com. Chordie works as a search engine and provides on-the-fly formatting. Chordie does not index songs against artists'/composers' will. To remove this song please click here.

Text color:
Chord color:
Chord grids: 
Font size:    
Page size: 

D5 E Eb5 F5 Gb5
Rate #1 of 2 versions

Login - add to songbook

SHARE PAGE  




You need to log in to post comments