Guitar Tabs, Chords and Lyrics
Major upgrade!! After one year development the new version of Chordie is now online! Please give feedback.


Take Her To The Music Store   From Autumn to Ashes

 
 -|-3-3-2-0-0-2-3-5-5-3-2-3-3-2-0-0-2-2-3-5-3-2--
 -|----------------------------------------------
 -|----------------------------------------------
 -|----------------------------------------------
 -|----------------------------------------------
 -|----------------------------------------------
 -|-3-3-2-0-0-2-3-5-3-3-3-3-3-2-0-0-2-3-5-5-3-2-|-
 -|---------------------------------------------|-
 -|---------------------------------------------|-
 -|---------------------------------------------|-
 -|---------------------------------------------|-
 -|---------------------------------------------|-

 


 


 


 Gtr.2


 

 
 -|-----------------------------------------------------------------|-
 -|-----------------------------------------------------------------|-
 -|o---9-----9--------5-----5-----5---5-----5--------7-----7-----7-o|-
 -|o-----9-----9--------5-----5---------5-----5--------7-----7-----o|-
 -|--7-----7-----7-3~-----3-----3---3-----3-----3-5~-----5-----5----|-
 -|-----------------------------------------------------------------|-

 


 


 Pre-Pre-Verse (Fast):


 


 Gtr.1


 

 
 -|---*--
 -|---R--
 -|---E--

 


 -|-9-S--


 -|-7-T--


 

 
 -|---*--

 


 


 Gtr.2


 

 
 -|------------------------------------------------------------------------
 -|------------------------------------------------------------------------
 -|------------------------------------------------------------------------
 -|-9-------9-----9---5-------5-----5~-5-------5-----5---7-------7-----7~--
 -|-7-7-7-7-7-7-7-7-7-3-3-3-3-3-3-3-3~-3-3-3-3-3-3-3-3-3-5-5-5-5-5-5-5-5~--
 -|------------------------------------------------------------------------

 


 [+] [+] [+] [+] [+] [+] [+] [+] [+] [+] [+] [+] [+] [+] [+] [+] [+] [+] [+] [+] [+] [+] 


 Gtr.1


 

 
 -|-----------------------------------------------------------------------|-
 -|-----------------------------------------------------------------------|-
 -|-----------------------------------------------------------------------|-
 -|-9-------9-----9---5-------5-----5~-5-------5-----5---7-------7-----7~-|-
 -|-7-7-7-7-7-7-7-7-7-3-3-3-3-3-3-3-3~-3-3-3-3-3-3-3-3-3-5-5-5-5-5-5-5-5~-|-
 -|-----------------------------------------------------------------------|-

 


 [+] [+] [+] [+] [+] [+] [+] [+] [+] [+] [+] [+] [+] [+] [+] [+] [+] [+] [+] [+] [+] [+] 


 Gtr.2


 

 
 -|-----------------------------------------------------------------------|-
 -|-----------------------------------------------------------------------|-
 -|-----------------------------------------------------------------------|-
 -|-9-------9-----9---5-------5-----5~-5-------5-----5---7-------7-----7~-|-
 -|-7-7-7-7-7-7-7-7-7-3-3-3-3-3-3-3-3~-3-3-3-3-3-3-3-3-3-5-5-5-5-5-5-5-5~-|-
 -|-----------------------------------------------------------------------|-

 


 [+] [+] [+] [+] [+] [+] [+] [+] [+] [+] [+] [+] [+] [+] [+] [+] [+] [+] [+] [+] [+] [+] 


 Pre-Verse (Fast):


 


 Gtr.1


 

 
 -|-------------------------------------------------------------------------|-
 -|-------------------------------------------------------------------------|-
 -|o-----------------------------------------------------------------------o|-
 -|o-9-------9-----9---5-------5-----5~-5-------5-----5---7-------7-----7~-o|-
 -|--7-7-7-7-7-7-7-7-7-3-3-3-3-3-3-3-3~-3-3-3-3-3-3-3-3-3-5-5-5-5-5-5-5-5~--|-
 -|-------------------------------------------------------------------------|-

 


 [+] [+] [+] [+] [+] [+] [+] [+] [+] [+] [+] [+] [+] [+] [+] [+] [+] [+] [+] [+] [+] [+] 


 Gtr.2


 

 
 -|-------------------------------------------------------------------------|-
 -|-------------------------------------------------------------------------|-
 -|o-----------------------------------------------------------------------o|-
 -|o-9-------9-----9---5-------5-----5~-5-------5-----5---7-------7-----7~-o|-
 -|--7-7-7-7-7-7-7-7-7-3-3-3-3-3-3-3-3~-3-3-3-3-3-3-3-3-3-5-5-5-5-5-5-5-5~--|-
 -|-------------------------------------------------------------------------|-

 


 [+] [+] [+] [+] [+] [+] [+] [+] [+] [+] [+] [+] [+] [+] [+] [+] [+] [+] [+] [+] [+] [+] 


 Verse 1:


 


 Gtr.1


 

 
 -|------------------------------------------------
 -|------------------------------------------------
 -|o-----------------------------------------------
 -|o-9--9x-x-5~--5-----5-----5---7-----7-----7777--
 -|--7--7x-x-3~--3-3-3-3-3-3-3-3-5-5-5-5-5-5-5555--
 -|------------------------------------------------

 


 [+] [+] [+] [+] [+] [+] [+] [+] [+] 


 Gtr.2


 

 
 -|-------------------------------------------------------
 -|-------------------------------------------------------
 -|o-7-7-7/9-5~-5/7-7-7/9-9-9/11-11-11/12-12-12/14-14\12--
 -|o------------------------------------------------------
 -|--5-5-5/7-3~-3/5-5-5/7-7-7/9--9---9/10-10-10/12-12\10--
 -|-------------------------------------------------------

 


 


 Gtr.1


 

 
 -|-----------------------------------------------|-
 -|-----------------------------------------------|-
 -|----------------------------------------------o|-
 -|-9--9x-x-5~--5-----5-----5---7-----7-----7777-o|-
 -|-7--7x-x-3~--3-3-3-3-3-3-3-3-5-5-5-5-5-5-5555--|-
 -|-----------------------------------------------|-

 


 [+] [+] [+] [+] [+] [+] [+] [+] [+] 


 Gtr.2


 

 
 -|-----------------------------------------------------------|-
 -|-----------------------------------------------------------|-
 -|-9-9-9/11-12~-12/14-14-14\12-12-12\11-11-11\9-9-9/11-11\9-o|-
 -|----------------------------------------------------------o|-
 -|-7-7-7/9--10~-10/12-12-12\10-10-10\9--9---9\7-7-7/9---7\9--|-
 -|-----------------------------------------------------------|-

 


 


 Pre-Interlude 1:


 


 Gtr.1


 

 
 -|-------------------------|-
 -|-------------------------|-
 -|-------------------------|-
 -|-------------------------|-
 -|-22222-22222-22222-22222-|-
 -|-00000-00000-00000-00000-|-

 


 [+++++] [+++++] [+++++] [+++++]  


 Gtr.2


 

 
 -|-------------------------|-
 -|-------------------------|-
 -|-------------------------|-
 -|-------------------------|-
 -|-22222-22222-22222-22222-|-
 -|-00000-00000-00000-00000-|-

 


 [+++++] [+++++] [+++++] [+++++]  


 Interlude 1 Part 1:


 


 Gtr.1


 

 
 -|---------------------------|-
 -|---------------------------|-
 -|o-------------------------o|-
 -|o-------------------------o|-
 -|--22222-22222-22222-22222--|-
 -|--00000-00000-00000-00000--|-

 


 [+++++] [+++++] [+++++] [+++++]  


 Gtr.2


 

 
 -|---------------------------------------------------------------------------|-
 -|---------------------------------------------------------------------------|-
 -|o-------------------------------------------------------------------------o|-
 -|o-------------------------------------------------------------------------o|-
 -|--7~-7-10-9-7h9p7-5~-7-9-10-7h9p7-3~-7-9-10-7h9p7-22222-22222-22222-22222--|-
 -|--------------------------------------------------00000-00000-00000-00000--|-

 


 [+++++] [+++++] [+++++] [+++++] 


 Interlude 1 Part 2:


 


 Gtr.1


 

 
 -|---------------------------------------------------------------------------------|-
 -|---------------------------------------------------------------------------------|-
 -|o-9~-9-12-11-9h11p9-7~-9-11-12-9h11p9-5~-9-11-12-9h11p9-------------------------o|-
 -|o-------------------------------------------------------------------------------o|-
 -|--------------------------------------------------------22222-22222-22222-22222--|-
 -|--------------------------------------------------------00000-00000-00000-00000--|-

 


 [+++++] [+++++] [+++++] [+++++] 


 Gtr.2


 

 
 -|---------------------------------------------------------------------------|-
 -|---------------------------------------------------------------------------|-
 -|o-------------------------------------------------------------------------o|-
 -|o-------------------------------------------------------------------------o|-
 -|--7~-7-10-9-7h9p7-5~-7-9-10-7h9p7-3~-7-9-10-7h9p7-22222-22222-22222-22222--|-
 -|--------------------------------------------------00000-00000-00000-00000--|-

 


 [+++++] [+++++] [+++++] [+++++] 


 Verse 2:


 


 Gtr.1


 

 
 -|--------------------------------------------------
 -|--------------------------------------------------
 -|o-------------------------------------------------
 -|o-(9--99-9)-5~--5-----5-----5---7-----7-----7777--
 -|--(7--77-7)-3~--3-3-3-3-3-3-3-3-5-5-5-5-5-5-5555--
 -|--------------------------------------------------

 


 *Notes in[+] ([+]) mean do[+] N[+]OT p[+]la[+]y th[+]e fi[+]rs[+]t ti[+]me[+], but play the second


 


 Gtr.2


 

 
 -|----------------------------------------------------
 -|----------------------------------------------------
 -|o-7777-5~-5/7-7-7/9-9-9/11-11-11/12-12-12/14-14\12--
 -|o---------------------------------------------------
 -|--5555-3~-3/5-5-5/7-7-7/9--9---9/10-10-10/12-12\10--
 -|----------------------------------------------------

 


 


 Gtr.1


 

 
 -|-----------------------------------------------|-
 -|-----------------------------------------------|-
 -|----------------------------------------------o|-
 -|-9--99-9-5~--5-----5-----5---7-----7-----7777-o|-
 -|-7--77-7-3~--3-3-3-3-3-3-3-3-5-5-5-5-5-5-5555--|-
 -|-----------------------------------------------|-

 


 [+] [+] [+] [+] [+] [+] [+] [+] [+] [+] [+] 


 Gtr.2


 

 
 -|-----------------------------------------------------------|-
 -|-----------------------------------------------------------|-
 -|-9-9-9/11-12~-12/14-14-14\12-12-12\11-11-11\9-9-9/11-11\9-o|-
 -|----------------------------------------------------------o|-
 -|-7-7-7/9--10~-10/12-12-12\10-10-10\9--9---9\7-7-7/9---7\9--|-
 -|-----------------------------------------------------------|-

 


 


 Interlude 2:


 


 * 10101010 are 10's, not 1's and 0's


 


 Gtr.1


 

 
 -|-----------------------------------------
 -|-----------------------------------------
 -|o----------------------------------------
 -|o------------------10101010999977779999--
 -|--2222222222222222-----------------------
 -|--0000000000000000-----------------------

 


 [++++++++++++++++]  


 Gtr.2


 

 
 -|-----------------------------------------
 -|-----------------------------------------
 -|o----------------------------------------
 -|o------------------10101010999977779999--
 -|--2222222222222222-----------------------
 -|--0000000000000000-----------------------

 


 [++++++++++++++++]  


 Gtr.1


 

 
 -|------------------------------------|---|-
 -|------------------------------------|---|-
 -|-----------------------------------o|---|-
 -|------------------5555444422224444-o|---|-
 -|-2222222222222222-------------------|-2-|-
 -|-0000000000000000-------------------|-0-|-

 


 [++++++++++++++++]  


 Gtr.2


 

 
 -|------------------------------------|---|-
 -|------------------------------------|---|-
 -|-----------------------------------o|---|-
 -|------------------5555444422224444-o|---|-
 -|-2222222222222222-------------------|-2-|-
 -|-0000000000000000-------------------|-0-|-

 


 [++++++++++++++++]  


 Clean Part 2:


 


 Gtr.1 Part 1


 

 
 -|------------------------|-
 -|------------------------|-
 -|o----5-7-7-7/9-12-11-7-o|-
 -|o----------------------o|-
 -|--2~-3-5-5-5/7-10-9--5--|-
 -|--0~--------------------|-

 


 


 Gtr.1 Part 2


 

 
 -|--------------------------------------------------
 -|--------------------------------------------------
 -|-4-------4-------5-----7-----7---7/9-----9--------
 -|--------------------------------------------------
 -|-2-------2-------3-----5-----5---5/7-----7--------
 -|---0-0-0---0-0-0---0-0---0-0---0-----0-0---0-0-0--

 


 [+] [+] [+] [+] [+] [+] [+] [+] [+] [+] [+] [+] [+] [+] [+] [+] 


 

 
 -|--------------------------------------------------
 -|--------------------------------------------------
 -|-12-----11-----7---4-------4-------5-----7-----7--
 -|--------------------------------------------------
 -|-10-----9------5---2-------2-------3-----5-----5--
 -|----0-0----0-0---0---0-0-0---0-0-0---0-0---0-0----

 


 [+] [+] [+] [+] [+] [+] [+] [+] [+] [+] [+] [+] [+] [+] [+] 


 

 
 -|-----------------------------|-
 -|-----------------------------|-
 -|---7/9-----9-------12~-11~-7-|-
 -|-----------------------------|-
 -|---5/7-----7-------10~-9~~-5-|-
 -|-0-----0-0---0-0-0-----------|-

 


 [+] [+] [+] [+] [+] [+]  


 Gtr.2


 

 
 -|----------------------------------|-
 -|--------0-------------------------|-
 -|o-----0-----0---------0~-------0-o|-
 -|o---4---------4-----4--------4---o|-
 -|--7---------------5--------5------|-
 -|----------------------------------|-

 


 


 Pre-Verse 3:


 


 Gtr.1


 

 
 -|-----------------------------------|-
 -|-----------------------------------|-
 -|-----------------------------------|-
 -|-9999-9999-99xx--------------------|-
 -|-------------xx-5~-5x-x-7~-7x-x-7~-|-
 -|-7777-7777-77xx-3~-3x-x-5~-5x-x-5~-|-

 


 


 Gtr.2


 

 
 -|-----------------------------------|-
 -|-----------------------------------|-
 -|-----------------------------------|-
 -|-----------------------------------|-
 -|----------------5~-5x-x-7~-7x-x-7~-|-
 -|----------------3~-3x-x-5~-5x-x-5~-|-

 


 


 Verse 3:


 


 Gtr.1


 

 
 -|-------------------------------------|-
 -|-------------------------------------|-
 -|o----------------------------------o-|-
 -|o-9999-9999-99xx-------------------o-|-
 -|--------------xx-5~-5x-x-7~-7x-x-7~--|-
 -|--7777-7777-77xx-3~-3x-x-5~-5x-x-5~--|-

 


 


 Gtr.2


 

 
 -|-------------------------------------|-
 -|-------------------------------------|-
 -|o----------------------------------o-|-
 -|o-9999-9999-99xx-------------------o-|-
 -|--------------xx-5~-5x-x-7~-7x-x-7~--|-
 -|--7777-7777-77xx-3~-3x-x-5~-5x-x-5~--|-

 


 


 Pre-Interlude 3:


 


 Gtr.1


 

 
 -|--------------------------------*--|----------------------|-
 -|--------------------------------R--|----------------------|-
 -|o-------------------------------E-o|----------------------|-
 -|o-------------------------------S-o|----------------------|-
 -|--222222222-222222222-222222222-T--|----------------------|-
 -|--000000000-000000000-000000000-*--|-\\PICK SCRAPE DOWN//-|-

 


 [+++++++++] [+++++++++] [+++++++++]  


 Gtr.2


 

 
 -|--------------------------------*--|----------------------|-
 -|--------------------------------R--|----------------------|-
 -|o-------------------------------E-o|----------------------|-
 -|o-------------------------------S-o|----------------------|-
 -|--222222222-222222222-222222222-T--|----------------------|-
 -|--000000000-000000000-000000000-*--|-\\PICK SCRAPE DOWN//-|-

 


 [+++++++++] [+++++++++] [+++++++++]  


 Interlude 3:


 


 Gtr.1


 

 
 -|------------------------------------------------------|-
 -|------------------------------------------------------|-
 -|o----------------------------------------------------o|-
 -|o----------------------------------------------------o|-
 -|--222222222-222222222-222222222-7-8-7-5-7-5-3-5-3-1~--|-
 -|--000000000-000000000-000000000-----------------------|-

 


 [+++++++++] [+++++++++] [+++++++++]  


 Gtr.2


 

 
 -|-------------------------------------------------------|-
 -|-------------------------------------------------------|-
 -|o-------------------------------9-10-9-7-9-7-5-7-5-3~-o|-
 -|o-----------------------------------------------------o|-
 -|--222222222-222222222-222222222------------------------|-
 -|--000000000-000000000-000000000------------------------|-

 


 [+++++++++] [+++++++++] [+++++++++]  


 Pre-Interlude 4:


 


 Gtr.1


 

 
 -|---------------|---------------------------|-
 -|---------------|---------------------------|-
 -|o-9~-----5-5~-o|-9~-----5-55555555*repeat*-|-
 -|o-------------o|---------------------------|-
 -|--7~-000-3-3~--|-7~-000-3-3----------------|-
 -|--0~-----------|-0~------------------------|-

 


 [+++] [+++]  


 Gtr.2


 

 
 -|---------------|---------------------------|-
 -|---------------|---------------------------|-
 -|o-9~-----5-5~-o|-9~-----5-5~---------------|-
 -|o-------------o|---------------------------|-
 -|--7~-000-3-3~--|-7~-000-3-3~---------------|-
 -|--0~-----------|-0~------------------------|-

 


 [+++] [+++]  


 Closing:


 


 Gtr.1


 

 
 -|-----------------------------------------------------------|-
 -|-----------------------------------------------------------|-
 -|o-4-------------5-------------4-------------5-----5-------o|-
 -|o---------------------------------------------------------o|-
 -|--2-222-222-222-3-222-222-222-2-222-222-222-3-222-3-(222)--|-
 -|----000-000-000---000-000-000---000-000-000---000---(000)--|-

 


 *Notes[+++] in [+++]() m[+++]ean pl[+++]ay t[+++]he f[+++]irst t[+++]ime,[+++] but[+++] NOT t[++]he sec[++]ond


 


 Gtr.2


 

 
 -|-----------------------------------------------------------|-
 -|-----------------------------------------------------------|-
 -|o-4-------------5-------------4-------------5-----5-------o|-
 -|o---------------------------------------------------------o|-
 -|--2-222-222-222-3-222-222-222-2-222-222-222-3-222-3-(222)--|-
 -|----000-000-000---000-000-000---000-000-000---000---(000)--|-

 


 [+++] [+++] [+++] [+++] [+++] [+++] [+++] [+++] [+++] [++] [++] 


 *Repeat the 2 times over again, but play slower and ignore the ()


 


 End:


 


 Gtr.1


 

 
 -|-------------------|-
 -|-------------------|-
 -|-4-4-4-4-4-4-4-4-4-|-
 -|-------------------|-
 -|-2-2-2-2-2-2-2-2-2-|-
 -|-------------------|-

 


 


 Gtr.2


 

 
 -|-------------------|-
 -|-------------------|-
 -|-4-4-4-4-4-4-4-4-4-|-
 -|-------------------|-
 -|-2-2-2-2-2-2-2-2-2-|-
 -|-------------------|-


Important: The song above is NOT stored on the Chordie server. The original song is hosted at www.xguitar.com. Chordie works as a search engine and provides on-the-fly formatting. Chordie does not index songs against artists'/composers' will. To remove this song please click here.

This song is displayed as text-only. Transposing and tuning is only available for chordpro-songs.
Rate #2 of 3 versions

Login - add to songbook

SHARE PAGE  



You need to log in to post comments