Guitar Tabs, Chords and Lyrics
Major upgrade!! After one year development the new version of Chordie is now online! Please give feedback.


Quarter  Fuel

Song: Quarter
Album: Natural Selection
guitar in drop-D tuning: D A D G B E
CHORDS:
D5: 000XXXX Eb5: 111XXXX
F5: 333XXXX G5: 555XXXX
INTRO: (0:00)
[D5]  
 
 |------------------|-------------------|
 |------------------|-------------------|
 |------------------|-------------------|
 |-0----------------|-------------------|
 |-0----------------|-------------------|
 |-0----------------|-------------------| Gtr. 1 (distortion)

| Hold
|
 
 |------------------|-------------------|
 |-10----------11---|-10----------11--/-|
 |------------------|-------------------|
 |------------------|-------------------|
 |------------------|-------------------|
 |------------------|-------------------|

Gtr. 2 (w/wah)
VERSE 1: (0:08)
I know I'm dead before my time I know it's coming down
[D5] [F5] [D5] [D5] [C5] [D5] [G5]  
 
 |--------------------------------|------------------------------|
 |--------------------------------|------------------------------|
 |--------------------------------|------------------------------|
 |--------------------------0---0-|------------------------------|
 |-0---3b-(3)-0-0-0---0-0---0-0-0-|-0---3b-(3)-0---0-0-----------|
 |-0---3b-(3)-0-0-0---0-0---0-0-0-|-0---3b-(3)-0---0-0-5v~---(5)-|

If you could only see what's right, you'd see what's comin' round
[D5] [F5] [D5] [D5] [F5] [D5] [G5]  
 
 |--------------------------------|------------------------------|
 |--------------------------------|------------------------------|
 |--------------------------------|------------------------------|
 |--------------------------0---0-|------------------------------|
 |-0---3b-(3)-0-0-0---0-0---0-0-0-|-0---3b-(3)-0---0-0-----------|
 |-0---3b-(3)-0-0-0---0-0---0-0-0-|-0---3b-(3)-0---0-0-5v~---(5)-|

CHORUS: (0:24)
(So I,_______________)
walk alone, I ask no quarter
[D5] [Eb5] [D5] [F5] [G5]  
 
 |-----------------------|----------------------|
 |-----------------------|----------------------|
 |-----------------------|----------------------|
 |-0--------0-0-1----1-1-|-0------3---3---5---5-|
 |-0--------0-0-1----1-1-|-0------3---3---5---5-|
 |-0--------0-0-1----1-1-|-0------3---3---5---5-|

(I,__________________)
friend walk alone, till I find you
[D5] [Eb5] [D5] [F5] [G5]  
 
 |-----------------------|----------------------|
 |-----------------------|----------------------|
 |-----------------------|----------------------|
 |-0--------0-0-1----1-1-|-0------3---3---5---5-|
 |-0--------0-0-1----1-1-|-0------3---3---5---5-|
 |-0--------0-0-1----1-1-|-0------3---3---5---5-|

again,_________ ________________
[D5]  
 
 |------------------|-------------------|
 |------------------|-------------------|
 |------------------|-------------------|
 |-0----------------|-------------------|
 |-0----------------|-------------------|
 |-0----------------|-------------------|

| Hold
|
 
 |------------------|-------------------|
 |-10----------11---|-10----------11--/-|
 |------------------|-------------------|
 |------------------|-------------------|
 |------------------|-------------------|
 |------------------|-------------------|

VERSE 2: (0:48)
I know no place to call me bed but I know this thorny crown
[D5] [F5] [D5] [D5] [F5] [D5] [G5]  
 
 |--------------------------------|------------------------------|
 |--------------------------------|------------------------------|
 |--------------------------------|------------------------------|
 |--------------------------0---0-|------------------------------|
 |-0---3b-(3)-0-0-0---0-0---0-0-0-|-0---3b-(3)-0---0-0-----------|
 |-0---3b-(3)-0-0-0---0-0---0-0-0-|-0---3b-(3)-0---0-0-5v~---(5)-|

If you could only feed your head, you'd see your hands are bound
[D5] [F5] [D5] [D5] [F5] [D5] [G5]  
 
 |--------------------------------|------------------------------|
 |--------------------------------|------------------------------|
 |--------------------------------|------------------------------|
 |--------------------------0---0-|------------------------------|
 |-0---3b-(3)-0-0-0---0-0---0-0-0-|-0---3b-(3)-0---0-0-----------|
 |-0---3b-(3)-0-0-0---0-0---0-0-0-|-0---3b-(3)-0---0-0-5v~---(5)-|

CHORUS: (1:04)
(So I,_______________)
walk alone, I ask no quarter
[D5] [Eb5] [D5] [F5] [G5]  
 
 |-----------------------|----------------------|
 |-10-----------11-------|-10-------------------|
 |-----------------------|----------------------|
 |-----------------------|----------------------|
 |-----------------------|----------------------|
 |-----------------------|----------------------| Gtr. 2 (w/wah)

(I,__________________)
friend walk alone, till I find you
[D5] [Eb5] [D5] [F5] [G5]  
 
 |-----------------------|----------------------|
 |-10-----------11-------|-10-----8-------6-----|
 |-----------------------|----------------------|
 |-----------------------|----------------------|
 |-----------------------|----------------------|
 |-----------------------|----------------------|

again,______
[G5] [Eb5]  
 
 |---------------------------|
 |---------------------------|
 |---------------------------|
 |-----------------------1-1-|
 |-X-X-5---5-5---X-X-1---1-1-|
 |-X-X-5---5-5---X-X-1---1-1-| (gtr. 1)

[D5]  
 
 |------------------|-------------------|
 |------------------|-------------------|
 |------------------|-------------------|
 |-0----------------|-------------------|
 |-0----------------|-------------------|
 |-0----------------|-------------------|

| Hold
|
 
 |------------------|-------------------|
 |-5----------5h6---|-5----------5h6--/-|
 |------------------|-------------------|
 |------------------|-------------------|
 |------------------|-------------------|
 |------------------|-------------------|

GUITAR SOLO: (1:32)
[D5] [F5] [D5] [D5] [F5] [D5]  
 
 |------------------------|-------------------------------|
 |-15-13-15---13-11-13-11-|-------------------------------|
 |------------------------|-12h14p12-10h12p10-9h10p9\7----|
 |------------------------|-------------------------------|
 |------------------------|-------------------------------|
 |------------------------|-------------------------------|

[D5] [F5] [D5] [D5] [F5] [D5]  
 
 |---------------------------------------|-10---8---6---5----------|
 |-12-12-11-11-9-9-7-7-5-5-4-4-2-2-2p0-0-|-----------------7h9p7v~-|
 |---------------------------------------|-------------------------|
 |---------------------------------------|-------------------------|
 |---------------------------------------|-------------------------|
 |---------------------------------------|-------------------------|

CHORUS: (1:48)
(So I,_______________)
walk alone, I ask no quarter
[D5] [Eb5] [D5] [F5] [G5]  
 
 |--------------15-------|-14------15-----------|
 |-10--------------14----|----14-------14-------|
 |-----------------------|----------------------|
 |-----------------------|----------------------|
 |-----------------------|----------------------|
 |-----------------------|----------------------| Gtr. 2 (w/wah)

(I,__________________)
friend walk alone, till I find you
[D5] [Eb5] [D5] [F5] [G5]  
 
 |-14------------15------|-14--------15-----17--|
 |----14------------14---|----14----------------|
 |-----------------------|----------------------|
 |-----------------------|----------------------|
 |-----------------------|----------------------|
 |-----------------------|----------------------|

again,______
[G5] [Eb5]  
 
 |---------------------------|
 |-15b---13---12-13-15-13----|
 |---------------------------|
 |---------------------------|
 |---------------------------|
 |---------------------------|

[D5]  
 
 |------------------|-------------------|
 |-10----------11---|-10----------11--/-|
 |------------------|-------------------|
 |------------------|-------------------|
 |------------------|-------------------|
 |------------------|-------------------|

INTERLUDE: Half-time Feel (2:16)
[D5]  
 
 |--------------------------|----------------------------------|
 |-15-15-15---13---11h13p11-|-10h11p10---8-8-6-10---6-6h8p6----|
 |--------------------------|----------------------------------|
 |--------------------------|----------------------------------|
 |--------------------------|----------------------------------|
 |--------------------------|----------------------------------|

I walk alone I walk alone
[D5] [Eb5] [D5] [Eb5]  
 
 |--------------------------|----------------------------------|
 |------8-10-11-10---8h10p8-|-10---8v~-------------------------|
 |-8v~----------------------|----------------------------------|
 |--------------------------|----------------------------------|
 |--------------------------|----------------------------------|
 |--------------------------|----------------------------------|

CHORUS: (2:32)
(So I,_______________)
walk alone, I ask no quarter
[D5] [Eb5] [D5] [F5] [G5]  
 
 |--------------15---13h15p13-|-12h13p12-10h12p10---5h6h8-|
 |----------------------------|---------------------------|
 |-2v~------------------------|---------------------------|
 |----------------------------|---------------------------|
 |----------------------------|---------------------------|
 |----------------------------|---------------------------|

(I,__________________)
friend walk alone, till I find you
[D5] [Eb5] [D5] [F5] [G5]  
 
 |-6-6---5-5---3-3---5-6-6-|------/13-13---15-----|
 |-------------------------|-2v~------------------|
 |-------------------------|----------------------|
 |-------------------------|----------------------|
 |-------------------------|----------------------|
 |-------------------------|----------------------|

(2:48)
(So I,_______________)
again walk alone, I ask no quarter
[D5] [Eb5] [D5] [F5] [G5]  
 
 |-12------12---12---13------13-|-12-10-8-6-5-5b--------|
 |----10-10---10---10---10-10---|-----------------------|
 |------------------------------|-----------------------|
 |------------------------------|-----------------------|
 |------------------------------|-----------------------|
 |------------------------------|-----------------------|

(I,__________________)
friend walk alone, till I find you
[D5] [Eb5] [D5] [F5] [G5]  
 
 |-15v~-12h13p12-12-13-12---15v~-|-5---6---5-5-6-6/7\6-5h6-|
 |-------------------------------|-------------------------|
 |-------------------------------|-------------------------|
 |-------------------------------|-------------------------|
 |-------------------------------|-------------------------|
 |-------------------------------|-------------------------|

(3:04)
again, till I find you
[(D5)]  
 
 |---------------------------------|----------------------------------|
 |---------------------------------|----------------------------------|
 |---------------------------------|----------------------------------|
 |---------------------------------|----------------------------------|
 |---------------------------------|----------------------------------|
 |-0-/12--10---7---8---7---5---3---|--0-/12--10---7---8---7---5---3---|

|
|
 
 |----10---8---5---6---5---3---1---|-----10---8---5---6---3---1---3---|
 |---------------------------------|--------------------------------3-|
 |---------------------------------|----------------------------------|
 |---------------------------------|----------------------------------|
 |---------------------------------|----------------------------------|
 |---------------------------------|----------------------------------|

again, till I find you
[(D5)]  
 
 |---------------------------------|----------------------------------|
 |---------------------------------|----------------------------------|
 |---------------------------------|----------------------------------|
 |---------------------------------|----------------------------------|
 |---------------------------------|----------------------------------|
 |-0-/12--10---7---8---7---5---3---|--0-/12--10---7---8---7---5---3---|

|
|
 
 |----10---8---6---5---6---5---3p1-|-----10---8---6---5---6---5---3---|
 |---------------------------------|--------------------------------3-|
 |---------------------------------|----------------------------------|
 |---------------------------------|----------------------------------|
 |---------------------------------|----------------------------------|
 |---------------------------------|----------------------------------|

OUTRO:(3:20)
again,
[D5]  
 
 |---------------------------------|----------------------------------|
 |---------------------------------|----------------------------------|
 |---------------------------------|----------------------------------|
 |-0-------------------------------|----------------------------------|
 |-0-------------------------------|----------------------------------|
 |-0-------------------------------|----------------------------------|

| Hold
|
 
 |---------------------------------|----------------------------------|
 |-(3)---3---3---3-----------------|----------------------------------|
 |-------------------7---9---7/----|----------------------------------|
 |---------------------------------|----------------------------------|
 |---------------------------------|----------------------------------|
 |---------------------------------|----------------------------------|


Important: The song above is NOT stored on the Chordie server. The original song is hosted at www.xguitar.com. Chordie works as a search engine and provides on-the-fly formatting. Chordie does not index songs against artists'/composers' will. To remove this song please click here.

Text color:
Chord color:
Chord grids: 
Font size:    
Page size: 

C5 D5 Eb5 F5 G5
Rate #4 of 5 versions

Jango Player

Login - add to songbook

SHARE PAGE  




You need to log in to post comments