Guitar Tabs, Chords and Lyrics
Server problems seems to be fixed. Chordie has been experiencing problems with songs disappearing. These issues now seems to be fixed, but still verifying the fix. If you find anything strange, please email admin@chordie.com.


Waking Up  Funeral for a Friend

Hey this is my first tab so i hope it's okay. if u see any errors email me at aeastham15@hotmail.com
eb
[Bb]  
[Gb]  
[Db]  
[Ab]  
[Db]  
Intro
Guitar 1
 
 eb ------------------------------|
 Bb -------------------15---15----|
 Gb ---------------------14----14-|
 Db 15 14 - 14 - - - - - -
 Ab - - 15 - 15 - - - - -
 Db ----------------------------

Guitar 2
 
 eb ---------------------------|
 Bb ---------------------------|
 Gb ---------------------------|
 Db 8----8------------12----12-|
 Ab 8----8------------12----12-|
 Db 8----8------------12----12-|

Verse 1
Guitar 2
 
 eb --------------------------------------------------|
 Bb --------------------------------------------------|
 Gb 14-10-10-10-10-12-10-14-10-10-10-9-15-14-10-12-12-|
 Db --------------------------------------------------|
 Ab --------------------------------------------------|
 Db --------------------------------------------------|

Pre-chorus
Guitar 2
 
 eb ------------|
 Bb ------------|

Gb 17-15-14-12-|
 
 Db ------------|
 Ab ------------|
 Db ------------|

Chorus
Guitar 1
 
 eb -------|
 Bb -------|
 Gb -------|

Db 10-12-8 repeat until end of chorus, ( work out strumming, not hard)
Ab 10-12-8
Db 10-12-8
Guitar 2
 
 eb ---------------------------|
 Bb -----15--------------------|
 Gb 9-10----9-9h12-9h10-9------|
 Db ---------------------12-10-| repeat until end of chorus, u need to listen
 Ab ---------------------------| for when it changes
 Db ---------------------------|

Verse 2 is the same as verse 1
2nd chorus
Guitar 1
 
 eb -------|
 Bb -------|

Gb 8-10-12
Db 8-10-12 repeat til end
Ab 8-10-12
Db 8-10-12
Giutar 2
 
 eb -----------------------------------------------------|
 Bb -----------------13-----------------------13------13-|
 Gb 17-15-14-12-9-10---9h12-9h10-9-------9-10----9-10----|
 Db -------------------------------12-10-----------------|
 Ab -----------------------------------------------------|
 Db -----------------------------------------------------|

Verse 3
Guitar 1 & 2
eb - - - -
[Bb] [-] [-] [-] [-]  
[Gb]Db [-]12 x29 [-]8 x12 [-]12 x12 [-]8 x12
Ab 12 8 12 8
Db 12 8 12 8
Verse 3 con't
 
 eb - ---- -|
 Bb - ---- -|
 Gb - ---- -|

Db 12 x12 8-12 10 x9 ( you'll only under stand this bit if
Ab 12 8-12 10 u'v heard the song)
Db 12 8-12 8
Clean bit (my favourite part of the song)
Guitar 1
 
 eb ------------------------------------|
 Bb ------------------------------------|
 Gb ----------12-12-10-10-12-12-10-10---|
 Db 8-8-10-10-10-10-10-10-10-10-8--8----| x4
 Ab 8-8-10-10-10-10-12-12-12-12-8--8----|
 Db 8-8-10-10-------------------8--8----|

Guitar 2 (start when guitar 1 does that^ twice thru)
 
 eb -----------------------------------|
 Bb -----------------------------------|
 Gb 10-9----10-9----10-9----9-10-12----|
 Db -----10------10------10------------| x2
 Ab -----------------------------------|
 Db -----------------------------------|

heaviset bit
Guitar 1
 
 eb --------------------------------------|
 Bb --------------------------------------|
 Gb 10-9-------10-9-------10-9-------9-10-|
 Db -----10-10------10-10------10-10------|
 Ab --------------------------------------|
 Db --------------------------------------|

Guitar 2
 
 eb --------------------------------|
 Bb --------------------------------|
 Gb 10-9----10-9----10-9----9-10-12-|
 Db -----10------10------10---------|
 Ab --------------------------------|
 Db --------------------------------|

End bit
Guitar 1 & 2
eb -
[Bb] [-]  
[Gb]Db [-]0 x13
Ab 0
Db 0
i hope this is wot u are looking for, email me if there are any errors.
I no there is an error in the last bit of the clean part, so i'd be very gratful if you
me the correct bit for that!! have fun!!

Important: The song above is NOT stored on the Chordie server. The original song is hosted at www.xguitar.com. Chordie works as a search engine and provides on-the-fly formatting. Chordie does not index songs against artists'/composers' will. To remove this song please click here.

Text color:
Chord color:
Chord grids: 
Font size:    
Page size: 

Ab Bb Db Gb
Rate #7 of 7 versions

Jango Player

Login - add to songbook

SHARE PAGE  



You need to log in to post comments