Guitar Tabs, Chords and Lyrics
Login is temporarily disabled for some users. Do not panic. Will be back in an hour or two. DO NOT REREGISTER!!


Blood of Emeralds  Gary Moore

BLOOD OF EMERALDS - Gary moore
\ = Slide Down
/ = Slide Up
Agustic guitar solo part...
Keyboard By Guitar...
[(F#)] [(E)] [(A)] [(Bm)] [(D)] [(E)]  
 
 ----14----16-14-12------------------------------------------------|
 -14----------------14-------12----14-12---------------------------|
 -------------------------14-------------14------------14---16-----|
 ---------------------------------------------16-14-16---------14--|
 ------------------------------------------------------------------|
 ------------------------------------------------------------------|

[(F#)] [(E)] [(A)] [(Bm)] [(F#)] [(D)] [(Esus4)] [(E)]  
 
 ----14----16-14-12------------------------------------------------|
 -14----------------14-------12----14-12--------------------14-12--|
 -------------------------14-------------14------------14----------|
 ---------------------------------------------16-14-16-------------|
 ------------------------------------------------------------------|
 ------------------------------------------------------------------|

Electric guitar solo part...
 
 ------------------------------------------------------------------|
 ------------------------------------------------------------------|
 -------------------------------------------------------8(9)-----9-|
 ------7---10(11)-7----------------7----11---9~11~9~7---------11---|
 -7--9---------------9--7----7--9----------------------------------|
 ------------------------------------------------------------------|
 ------------------------------------------------------------------|
 -------9----------------------------------------------------------|
 -11------11---9---------------------------------------------------|
 -------------------9//11---------9-11-9---7~9~7-------------------|
 -------------------------12---------------------9---7--7//9-------|
 ------------------------------------------------------------------|

Guitar riff for here and for the chorus...
 
 [D]-------------------------------------|
 [A]-4---------------2-4---------4-2-----|
 [E]---2-2-2---4-5-------2-2-2-5-----4-0-|
 [D]-------------------2-----------------|
 [A]-4---------------4---4-----2-4-2-----|
 [E]---2-2-2---4-5---------5-5-------4-0-|
 [D]-------------------------------------|
 [A]-4-----------4-----------------------|
 [E]---2-2-2---0-2-----------------------|

I was [(A)]born up on the North side, where the [(F#)]Lagan River flows.
When I [(A)]came across the border, I was [(F#)]following my [(E)]nose.
[(C#m)] [(F#)] [(A)]  
 
 [G]-6-----------1-----2-----|
 [D]-6------4----2-----2-----|
 [A]-4------4----2-----0-----|
 [E]--------2----------------|

Dublin city Sixty-nine,
there [(Bm)]could have been no better place, there [(D)]was no better [(E)]time.
[(C#m)] [(F#)] [(A)]  
 
 [G]-6-------------------1-------2-----|
 [D]-6-----------4-------2-------2-----|
 [A]-4-----------4-------2-------0-----|
 [E]-------------2---------------------|

Through the thunder and the rain,
the [(Bm)]deepest blood of emeralds was [(D)]running [(E)]through my [(F#m)]veins.
Guitar riff for the chorus...
 
 [D]-------------------------------------|
 [A]-4---------------2-4---------4-2-----|
 [E]---2-2-2---4-5-------2-2-2-5-----4-0-|
 [D]-------------------2-----------------|
 [A]-4---------------4---4-----2-4-2-----|
 [E]---2-2-2---4-5---------5-5-------4-0-|

Blood Of
 
 [D]-------------------------------------|
 [A]-4---------------2-4---------4-2-----|
 [E]---2-2-2---4-5-------2-2-2-5-----4-0-|

Emeralds
 
 [D]-------------------2-----------------|
 [A]-4---------------4---4-----2-4-2-----|
 [E]---2-2-2---4-5---------5-5-------4-0-|
 [D]-------------------------------------|
 [A]-5-4-2-5-----------4-----------------|
 [E]---------2-2-2---0-2-----------------|

I was [(A)]down and out on Skid Row, but I [(F#)]held on to my pride.
The [(A)]darkest son of Ireland, he was [(F#)]standin' by my [(E)]side.
[(C#m)] [(F#)] [(A)]  
 
 [G]-6-----------------1------2----|
 [D]-6--------4--------2------2----|
 [A]-4--------4--------2------0----|
 [E]----------2--------------------|

We would sail the stormy seas.
[(Bm)]Never looking back, we were af[(D)]raid of what we'd [(E)]see.
[(C#m)] [(F#)] [(A)]  
 
 [G]-6-------------------1-------2----|
 [D]-6-----------4-------2-------2----|
 [A]-4-----------4-------2-------0----|
 [E]-------------2--------------------|

Through the thunder and the rain,
the [(Bm)]deepest blood of emeralds was [(D)]running [(E)]through our [(A)]veins.
[(C#m)] Some of us will [(E)]win and some of us will [(A)]lose,
the strong will sur[(F#)]vive.
[(G#m)] Some of us will [(Bm)]fall,
some of us [(D)]won't get out [(A)]of here a[(Bm)]live.
Guitar riff for the chorus...
 
 [D]-------------------------------------|
 [A]-4---------------2-4---------4-2-----|
 [E]---2-2-2---4-5-------2-2-2-5-----4-0-|
 [D]-------------------2-----------------|
 [A]-4---------------4---4-----2-4-2-----|
 [E]---2-2-2---4-5---------5-5-------4-0-|

Blood Of
 
 [D]-------------------------------------|
 [A]-4---------------2-4---------4-2-----|
 [E]---2-2-2---4-5-------2-2-2-5-----4-0-|

Emeralds
 
 [D]-------------------2-----------------|
 [A]-4---------------4---4-----2-4-2-----|
 [E]---2-2-2---4-5---------5-5-------4-0-|
 [D]-------|

[A]-5-4-2-|
 
 [E]-------|

Blood Of
 
 [D]-------------------------------------|
 [A]-4---------------2-4---------4-2-----|
 [E]---2-2-2---4-5-------2-2-2-5-----4-0-|

Emeralds
 
 [D]-------------------2-----------------|
 [A]-4---------------4---4-----2-4-2-----|
 [E]---2-2-2---4-5---------5-5-------4-0-|
 [D]-------|

[A]-5-4-2-|
 
 [E]-------|

A short Guitar solo...
 
 ----14-14-14-----11-12---11~12~11~----14-14-14----12-11-----------|
 -14--------------------------------14-------------------14-12-----|
 ------------------------------------------------------------------|
 ------------------------------------------------------------------|
 ------------------------------------------------------------------|
 ------------------------------------------------------------------|
 ----14-14-14-----11-12---14-12------------------------------------|
 -14----------------------------14-------12-14-12------------------|
 ----------------------------------14-14------------14-------------|
 ------------------------------------------------------------------|
 ------------------------------------------------------------------|
 ------------------------------------------------------------------|
 ----14-14-14-----11-12---11~12~11~----14-14-14----12-11-----------|
 -14--------------------------------14-------------------14-12-----|
 ------------------------------------------------------------------|
 ------------------------------------------------------------------|
 ------------------------------------------------------------------|
 ------------------------------------------------------------------|
 ----14-14-14-----11-12---14-12------------------------------------|
 -14----------------------------14-------12-14-12-------15-14-12---|
 ----------------------------------14-14----------13-----7--6--5---|
 ----------------------------------------------------14------------|
 ------------------------------------------------------------------|
 ------------------------------------------------------------------|
 [D]-------------------------------------|
 [A]-4---------------2-4---------4-2-----|
 [E]---2-2-2---4-5-------2-2-2-5-----4-0-|
 [D]-------------------2-----------------|
 [A]-4---------------4---4-----2-4-2-----|
 [E]---2-2-2---4-5---------5-5-------4-0-|
 [D]-------------------------------------|
 [A]-4---------------2-4---------4-2-----|
 [E]---2-2-2---4-5-------2-2-2-5-----4-0-|
 [D]-------------------2-----------------|
 [A]-4---------------4---4-----2-4-2-----|
 [E]---2-2-2---4-5---------5-5-------4-0-|
 [D]-------|-----------------------------|
 [A]-5-4-2-|-4---------------------------|
 [E]-------|---2-2-2---0-2---------------|
 [G]-6-----------------------------------|
 [D]---4-4-4-----4-----------------------|
 [A]-----------7-------------------------|
 [E]-------------------------------------|
 [B]-14-------------9--9(10)-------------|
 [G]----11-11-11----9-10(11)-------------|
 [D]-------------------------------------|
 [A]-------------------------------------|
 [E]-------------------------------------|

[(A)] I was angry,[(E)] I was [(F#)]sad,
[(E)] just [(D)]thinking about the [(E)]times we had.
[(A)] I felt so lost and [(E)] lonely [(F#)]too,
[(E)] what [(D)]could I say, [(E)]what could I do?
[(D)] After all, the [(E)]time goes[(F#)] by.
[(D)] No one knows the [(E)]reasons[(F#)] why.
[(E)] You [(D)]lived each day [(E)]like there was no to[(F#)]morrow.
[(E)] You [(D)]spent those years [(E)]living on time you [(F#)]borrowed.
[(E)] And [(D)]in your eyes, [(E)]all I could see was [(F#)]sorrow.
Here is the main Guitar Solo...
[(A)] [(E)] [(F#)] [(E)]  
 
 ------------------------------------------------------------------|
 ------------------------------------------------------------------|
 -------------------------------------------------------8(9)-----9-|
 ------7---10(11)-7----------------7----11---9~11~9~7---------11---|
 -7--9---------------9--7----7--9----------------------------------|
 ------------------------------------------------------------------|

[(D)] [(F#)] [(Bm)] [(D)] [(E)]  
 
 ------------------------------------------------------------------|
 ------9-----------------------------------------------------------|
 -11-----11---9----------------------------------------------11----|
 -----------------9//11-----9-11-11(12)--11-9--8-8~9~8~---14----14-|
 ------------------------12----------------------------9-----------|
 ------------------------------------------------------------------|

[(A)] [(E)] [(F#)] [(E)]  
 
 ----------------------------------------------------12---------12-|
 ------14----------------------------14-12~14~12~------------14----|
 -14-------14-----------------11-14--------------14----------------|
 --------------14//16-14---14--------------------------------------|
 ------------------------------------------------------------------|
 ------------------------------------------------------------------|

[(D)] [(F#)] [(D)] [(E)] [(A)]  
 
 -14---15(16)--14--12----9-----------------------------------------|
 --------------------------12-10---12-12(14)--12---10~12~12~----10-|
 -----------------------------------------------------------11-----|
 ------------------------------------------------------------------|
 ------------------------------------------------------------------|
 ------------------------------------------------------------------|

[(C#m)] Some of us will [(E)]win and some of us will [(A)]lose,
the strong will sur[(F#)]vive.
[(G#m)] Some of us will [(Bm)]fall,
some of us [(D)]won't get out [(A)]of here a[(Bm)]live.
Repeat This Riff Till Fading...
 
 [D]-------------------------------------|
 [A]-4---------------2-4---------4-2-----|
 [E]---2-2-2---4-5-------2-2-2-5-----4-0-|
 [D]-------------------2-----------------|
 [A]-4---------------4---4-----2-4-2-----|
 [E]---2-2-2---4-5---------5-5-------4-0-|
 [D]-------------------------------------|
 [A]-4---------------2-4---------4-2-----|
 [E]---2-2-2---4-5-------2-2-2-5-----4-0-|
 [D]-------------------2-----------------|
 [A]-4---------------4---4-----2-4-2-----|
 [E]---2-2-2---4-5---------5-5-------4-0-|
 [D]-------|

[A]-5-4-2-|
 
 [E]-------|

Enjoy!

Important: The song above is NOT stored on the Chordie server. The original song is hosted at www.xguitar.com. Chordie works as a search engine and provides on-the-fly formatting. Chordie does not index songs against artists'/composers' will. To remove this song please click here.

Text color:
Chord color:
Chord grids: 
Font size:    
Page size: 

A B D E G
Rate #1 of 7 versions

Login - add to songbook

SHARE PAGE  



You need to log in to post comments