Guitar Tabs, Chords and Lyrics
Login is temporarily disabled for some users. Do not panic. Will be back in an hour or two. DO NOT REREGISTER!!


Wild Frontier   Gary Moore

 
 E |------------------|--------------------------------------|
 B |------------------|17-----------19---20-------19---17-19-|
 G |--------16---19---|--------------------------------------|
 D |------------------|--------------------------------------|
 A |------------------|--------------------------------------|
 E |------------------|--------------------------------------|
 E |------------------------------------|-----------------------------------|
 B |17----------------------------------|-----------------------------------|
 G |-----19-------16--------------------|------------------------------19---|
 D |-------------------------------17---|19-------17-------19^^^------------|
 A |------------------------------------|-----------------------------------|
 E |------------------------------------|-----------------------------------|
 E |-------------------|--------------------------------------|
 B |-------------------|17-----------19---20-------19---17-19-|
 G |19-------16---19---|--------------------------------------|
 D |-------------------|--------------------------------------|
 A |-------------------|--------------------------------------|
 E |-------------------|--------------------------------------|
 E |------------------------------------|-----------------------------------|
 B |17----------------------------------|-----------------------------------|
 G |-----19-------16--------------------|------------------------------19---|
 D |-------------------------------17---|19-------17-------19^^^------------|
 A |------------------------------------|-----------------------------------|
 E |------------------------------------|-----------------------------------|
 E |-----------------|
 B |17---------------|
 G |-----------------|
 D |-----------------|
 A |-----------------|
 E |-----------------|

 


 


 Verse:


 

 
 E |----------------|----------------|----------------|----------------|
 B |----------------|----------------|----------------|----------------|
 G |----------------|----------------|5-------------5-|----------------|
 D |2-------------2-|5---------------|5-------------5-|2---------------|
 A |2-------------2-|5---------------|3-------------3-|2---------------|
 E |0-------------0-|3---------------|----------------|0---------------|
 E |----------------|----------------|----------------|----------------|
 B |----------------|----------------|----------------|----------------|
 G |----------------|----------------|5---------------|--7-7---4---7---|
 D |2-------------2-|5---------------|5---------------|--7-7---4---7---|
 A |2-------------2-|5---------------|3---------------|--5-5---2---5---|
 E |0-------------0-|3---------------|----------------|----------------|

 


 


 Prechorus:


 

 
 E |----------------|----------------|----------------|----------------|
 B |----------------|----------------|----------------|----------------|
 G |----------------|4---------------|5---------------|4---------------|
 D |2---------------|4---------------|5---------------|4---------------|
 A |2---------------|2---------------|3---------------|2---------------|
 E |0---------------|----------------|----------------|----------------|
 E |----------------|----------------|----------------|----------------|
 B |----------------|----------------|----------------|----------------|
 G |----------------|4---------------|--------4-------|5---------------|
 D |2---------------|4---------------|7-------4-------|5---------------|
 A |2---------------|2---------------|7-------2-------|3---------------|
 E |0---------------|----------------|5---------------|----------------|

 


 


 Chorus:


 

 
 E |----------------|----------------|----------------|----------------|
 B |----------------|----------------|----------------|----------------|
 G |----------------|----------------|----------------|----------------|
 D |--4-5-4---4-5-4-|----4-5-4-----4-|--4-5-4---4-5-4-|--4-5-4---4-5-4-|
 A |7-------5-------|2-5-------2-5---|7-------5-------|2-------3-------|
 E |----------------|----------------|----------------|----------------|
 E |----------------|----------------|----------------|----------------|
 B |----------------|----------------|----------------|----------------|
 G |----------------|----------------|----------------|----------------|
 D |--4-5-4---4-5-4-|----4-5-4-----4-|----------------|----------------|
 A |7-------5-------|2-5-------2-5---|----------------|----------------|
 E |----------------|----------------|----------------|----------------|

 


 Just bend a little bit here:


 

 
 E |----------------|----------------|
 B |----------------|----------------|
 G |----------------|9^-9^9^-9^------|
 D |----------------|----------------|
 A |----------------|----------------|
 E |----------------|----------------|

 


 


 2nd verse:


 

 
 E |--------------------------------|--------------------------------|
 B |--------------------------------|--------------------------------|
 G |--------------------------------|--------------------------------|
 D |2---2-2-2---2-2-2---2-2-2---2-2-|5---5-5-5---5-5-5---5-5-5---5-5-|
 A |2---2-2-2---2-2-2---2-2-2---2-2-|5---5-5-5---5-5-5---5-5-5---5-5-|
 E |0---0-0-0---0-0-0---0-0-0---0-0-|3---3-3-3---3-3-3---3-3-3---3-3-|
 E |--------------------------------|--------------------------------|
 B |--------------------------------|--------------------------------|
 G |5---5-5-5---5-5-5---5-5-5---5-5-|--------------------------------|
 D |5---5-5-5---5-5-5---5-5-5---5-5-|2---2-2-2---2-2-2---2-2-2---2-2-|
 A |3---3-3-3---3-3-3---3-3-3---3-3-|2---2-2-2---2-2-2---2-2-2---2-2-|
 E |--------------------------------|0---0-0-0---0-0-0---0-0-0---0-0-|
 E |--------------------------------|--------------------------------|
 B |--------------------------------|--------------------------------|
 G |--------------------------------|--------------------------------|
 D |2---2-2-2---2-2-2---2-2-2---2-2-|5---5-5-5---5-5-5---5-5-5---5-5-|
 A |2---2-2-2---2-2-2---2-2-2---2-2-|5---5-5-5---5-5-5---5-5-5---5-5-|
 E |0---0-0-0---0-0-0---0-0-0---0-0-|3---3-3-3---3-3-3---3-3-3---3-3-|
 E |--------------------------------|----------------|
 B |--------------------------------|----------------|
 G |5---5-5-5---5-5-5---5-5-5---5-5-|--7-7---4---7---|
 D |5---5-5-5---5-5-5---5-5-5---5-5-|--7-7---4---7---|
 A |3---3-3-3---3-3-3---3-3-3---3-3-|--5-5---2---5---|
 E |--------------------------------|----------------|

 


 


 Then, play the prechorus again and then the second chorus.


 


 2nd chorus:


 

 
 E |----------------|----------------|----------------|----------------|
 B |----------------|----------------|----------------|----------------|
 G |----------------|----------------|----------------|----------------|
 D |--4-5-4---4-5-4-|----4-5-4-----4-|--4-5-4---4-5-4-|--4-5-4---4-5-4-|
 A |7-------5-------|2-5-------2-5---|7-------5-------|2-------3-------|
 E |----------------|----------------|----------------|----------------|
 E |----------------|----------------|----------------|----------------|
 B |----------------|----------------|----------------|----------------|
 G |----------------|----------------|----------------|--------5-------|
 D |--4-5-4---4-5-4-|----4-5-4-----4-|--4-5-4---4-5-4-|--4-5-4-5-------|
 A |7-------5-------|2-5-------2-5---|7-------5-------|2-------3-------|
 E |----------------|----------------|----------------|----------------|

 


 


 Then the guitar takes a little rest, and then play a pretty easy part,


 like:


 [1] [2] [3] [4]  

 
 E |-------------------|-----------------|-----------------|----------------|
 B |10^^^^-----10------|-----------------|-----------------|----------------|
 G |----------------12-|11---------------|12---------------|4---------------|
 D |-------------------|-----------------|-----------------|----------------|
 A |-------------------|-----------------|-----------------|----------------|
 E |-------------------|-----------------|-----------------|----------------|
 E |----------------|----------------|----------------|----------------|
 B |----------------|----------------|----------------|----------------|
 G |----------------|----------------|----------------|----------------|
 D |----------------|----5-----5---5-|----5-----5---5-|----5-----5---5-|
 A |----------------|--5-----5---5---|--5-----5---5---|--5-----5---5---|
 E |----------------|3-----3---------|3-----3---------|3-----3---------|
 E |3---------------|----------------|----------------|----------------|
 B |3---------------|----------------|----------------|----------------|
 G |0---------------|4---------------|----------------|--------4-------|
 D |----------------|4---------------|2---------------|7-------4-------|
 A |----------------|2---------------|2---------------|7-------2-------|
 E |----------------|----------------|0---------------|5---------------|
 E |----------------|----------------|------------------|
 B |----------------|----------------|------------------|
 G |5-------7-------|9---------------|7-------16---19---|
 D |5-------7-------|9---------------|7-----------------|
 A |3-------5-------|7---------------|5-----------------|
 E |----------------|----------------|------------------|

 


 


 Then, play the last half of the intro, like this:


 


 

 
 E |--------------------------------------|------------------------------------|
 B |17-----------19---20-------19---17-19-|17----------------------------------|
 G |--------------------------------------|-----19-------16--------------------|
 D |--------------------------------------|-------------------------------17---|
 A |--------------------------------------|------------------------------------|
 E |--------------------------------------|------------------------------------|
 E |-----------------------------------|-----------------|
 B |-----------------------------------|17---------------|
 G |------------------------------19---|-----------------|
 D |19-------17-------19^^^------------|-----------------|
 A |-----------------------------------|-----------------|
 E |-----------------------------------|-----------------|

 


 


 Well... this is my first guitar tab, ever, so i didn't tabbed


 the guitar solo. I'm gonna tab it later if I ever have the


 energy to try to figure it out. I just play the regular verse there.


 


 And after the solo the prechorus comes. While the prechorus is played,


 he plays a sort of "backgroundsolo". And I can't figure out that either.


 But the 2nd guitar prechorus is played like this here:


 


 

 
 E |----------------|----------------|----------------|----------------|
 B |----------------|----------------|----------------|----------------|
 G |----------------|4---------------|5---------------|4---------------|
 D |2---------------|4---------------|5---------------|4---------------|
 A |2---------------|2---------------|3---------------|2---------------|
 E |0---------------|----------------|----------------|----------------|
 E |----------------|----------------|----------------|15v------14v------|
 B |----------------|----------------|----------------|------------------|
 G |----------------|4---------------|--------4-------|------------------|
 D |2---------------|4---------------|7-------4-------|------------------|
 A |2---------------|2---------------|7-------2-------|------------------|
 E |0---------------|----------------|5---------------|------------------|

 


 (These last two bars are just played by the 1st first guitar actually)


 

 
 E |12v---------------|
 B |---------15v------|
 G |------------------|
 D |------------------|
 A |------------------|
 E |------------------|

 


 


 This part is played clean.


 

 
 E |----------------|----------------|----------------|----------------|
 B |----------------|----------------|----------------|----------------|
 G |----------------|----------------|----------------|----------------|
 D |----------------|----------7-9---|----------------|----------------|
 A |----------------|--------7-------|----------------|----------------|
 E |----------------|----------------|----------------|----------------|
 E |----------------|----------------|----------------|----------------|
 B |----------------|----------------|----------------|----------------|
 G |----------------|----------------|9---------------|----------------|
 D |----------------|----------------|9---------------|----------------|
 A |----------------|----------------|7---------------|----------------|
 E |----------------|----------------|----------------|----------------|

 


 (Dist guitar)


 

 
 E |----------------|----------------|
 B |----------------|----------------|
 G |9-9-9-9-7-7-7-7-|----------------|
 D |----------------|9-9-9-9-7-7-7-7-|
 A |----------------|----------------|
 E |----------------|----------------|

 


 


 Then, play the chorus again, two times, the second time like this:


 

 
 E |----------------|----------------|----------------|----------------|
 B |----------------|----------------|----------------|----------------|
 G |----------------|----------------|----------------|----------------|
 D |--4-5-4---4-5-4-|----4-5-4-----4-|--4-5-4---4-5-4-|--4-5-4---4-5-4-|
 A |7-------5-------|2-5-------2-5---|7-------5-------|2-------3-------|
 E |----------------|----------------|----------------|----------------|
 E |----------------|----------------|----------------|------------------|
 B |----------------|----------------|----------------|------------------|
 G |----------------|----------------|----------------|------------------|
 D |--4-5-4---4-5-4-|----4-5-4-----4-|--4-5-4---4-5-4-|--4-5-4-16---19---|
 A |7-------5-------|2-5-------2-5---|7-------5-------|2-----------------|
 E |----------------|----------------|----------------|------------------|


Important: The song above is NOT stored on the Chordie server. The original song is hosted at www.xguitar.com. Chordie works as a search engine and provides on-the-fly formatting. Chordie does not index songs against artists'/composers' will. To remove this song please click here.

This song is displayed as text-only. Transposing and tuning is only available for chordpro-songs.
Rate #1 of 1 versions

Jango Player

Login - add to songbook

SHARE PAGE  




You need to log in to post comments