Guitar Tabs, Chords and Lyrics
Major upgrade!! After one year development the new version of Chordie is now online! Please give feedback.


Awake  Godsmack

AWAKE
As recorded by Godsmack
(From the 2000 Album AWAKE)
Words and Music by Salavatore Erna
http://ptbfiles.cjb.net
Intro/1st Chrous
Moderate Heavy Rock Q=111
$
[Dsus2] [D5] [EbsuEb5] [D5] 
[4/4] Gtrs I, II
 
 ||--0---0-(0)--0-0---|-------------------||
 ||o-3---3-(3)--3-3---|------------------o||
 ||--2---2-(2)--2-2---|-3-----------------||
 ||--0---0-(0)--0-0-0-|-3---1-(1)--1-0-0--||
 ||o-0---0-(0)--0-0-0-|-1---1-(1)--1-0-0-o||
 ||--0---0-(0)--0-0-0-|-1---1-(1)--1-0-0--||

[D]Gtr III
 
 ||----------------------------|
 ||o---------------------------|
 ||--7-7-(7)-7-7-(7)-7-7-7-7-7S|
 ||----------------------------|
 ||o-5-5-(5)-5-5-(5)-5-5-5-5-5S|
 ||----------------------------|

|
| Gtrs I, II
 
 ||--0---------0-(0)-----0-0---|
 ||o-3---------3-(3)-----3-3---|
 ||--2---------2-(2)-----2-2---|
 ||--0---------0-(0)-----0-0-0-|
 ||o-0---------0-(0)-----0-0-0-|
 ||--0---------0-(0)-----0-0-0-|

1. 2.
[Bb] [Eb] [D] [Bb] [Eb] [Eb5]  
 
 |------------------------------||-------------------------|
 |-----------------------------o||-------------------------|
 |-3-3-(3)S8-8-(8)-8-8-8-8-8-7--||-\3-3-(3)S8-(8)-8-8------|
 |------------------------------||-------------------------|
 |-1-1-(1)S6-6-(6)-6-6-6-6-6-5-o||-\1-1-(1)S6-(6)-6-6-13\--|
 |------------------------------||--------------------13\--|

|
 
 |------------------------------||-------------------------|
 |-----------------------------o||-------------------------|
 |-3----------------------------||--3----------------------|
 |-3---------1-(1)-----1---0-0--||--3-------1-(1)----------|
 |-1---------1-(1)-----1---0-0-o||--1-------1-(1)-----13\--|
 |-1---------1-(1)-----1---0-0--||--1-------1-(1)-----13\--|

Gtrs I, II
 
 PM--------| PM------|

3x
 
 ||-------------------||----------------------||---------------------------|
 ||o-----------------o||----------------------||o--------------------------|
 ||-------------------||-----------0-(0)------||---------------7-7-8-8-8-8-|
 ||--0-0-(0)-0-0------||-0-0-(0)-0-5-(5)------||--0-0--0-0-(0)-------------|
 ||o-0-0-(0)-0-0-----o||-0-0-(0)-0------------||o-0-0--0-0-(0)-5-5-6-6-6-6-|
 ||--0-0-(0)-0-0------||-0-0-(0)-0--------5/--||--0-0--0-0-(0)-------------|

1.
 
 |--------------------------|--------------------------|
 |--------------------------|--------------------------|
 |--------------7-7-8-8-8-8-|--------------7-7-8-8-8-8-|
 |-0-0--0-0-(0)-------------|-0-0--0-0-(0)-------------|
 |-0-0--0-0-(0)-5-5-6-6-6-6-|-0-0--0-0-(0)-5-5-6-6-6-6-|
 |-0-0--0-0-(0)-------------|-0-0--0-0-(0)-------------|
 |--------------------------------||
 |-------------------------------o||
 |--------------7-7S10-10-10-10---||
 |-0-0--0-0-(0)-------------------||
 |-0-0--0-0-(0)-5-5S=8--8--8--8--o||
 |-0-0--0-0-(0)-------------------||

1st Verse
2.
To Coda
 
 |----------------------------|----------------||--------------|
 |----------------------------|----------------||o-------------|
 |--------------7-7-8-8-8s10--|-10------(10)\--||--------------|
 |-0-0--0-0-(0)---------------|--9-------(9)\--||--0---0-(0)---|
 |-0-0--0-0-(0)-5-5-6-6-6s=8--|--8-------(8)\--||o-0---0-(0)---|
 |-0-0--0-0-(0)---------------|----------------||--0---0-(0)---|

D.S. al Coda
 
 |--------------|--------------|---------------------||
 |--------------|--------------|--------------------o||
 |--------------|--------------|-^3------------------||
 |-0---0-(0)----|-0---0-(0)----|-^3---1-(1)--1-0-0---||
 |-0---0-(0)----|-0---0-(0)----|-^1---1-(1)--1-0-0--o||
 |-0---0-(0)----|-0---0-(0)----|-^1---1-(1)--1-0-0---||

2nd Verse
&
 
 |--------------------||---------------|
 |--------------------||o--------------|
 |-10----(10)-10-10\--||---------------|
 |--9-----(9)--9--9\--||--0---0-(0)----|
 |--8-----(8)--8--8\--||o-0---0-(0)----|
 |--------------------||--0---0-(0)----|
 |--------------|--------------|----------------------||
 |--------------|--------------|---------------------o||
 |--------------|--------------|-^3-------------------||
 |-0---0-(0)----|-0---0-(0)----|-^3---1-(1)--1-0-0----||
 |-0---0-(0)----|-0---0-(0)----|-^1---1-(1)--1-0-0---o||
 |-0---0-(0)----|-0---0-(0)----|-^1---1-(1)--1-0-0----||

2nd Chorus
5x
 
 ||--0---0-(0)--0-0---|-------------------||
 ||o-3---3-(3)--3-3---|------------------o||
 ||--2---2-(2)--2-2---|-3-----------------||
 ||--0---0-(0)--0-0-0-|-3---1-(1)--1-0-0--||
 ||o-0---0-(0)--0-0-0-|-1---1-(1)--1-0-0-o||
 ||--0---0-(0)--0-0-0-|-1---1-(1)--1-0-0--||

Gtr III
 
 ||----------------------------|
 ||o---------------------------|
 ||--7-7-(7)-7-7-(7)-7-7-7-7-7S|
 ||----------------------------|
 ||o-5-5-(5)-5-5-(5)-5-5-5-5-5S|
 ||----------------------------|

|
| Gtrs I, II
 
 ||--0---------0-(0)-----0-0---|
 ||o-3---------3-(3)-----3-3---|
 ||--2---------2-(2)-----2-2---|
 ||--0---------0-(0)-----0-0-0-|
 ||o-0---------0-(0)-----0-0-0-|
 ||--0---------0-(0)-----0-0-0-|

1. 2.
 
 |------------------------------||----------------------------||
 |-----------------------------o||----------------------------||
 |-3-3-(3)S8-8--8--8-8-8-8-8-7--||-3-3-(3)S8-8--8--8-8-8------||
 |------------------------------||----------------------------||
 |-1-1-(1)S6-6--6--6-6-6-6-6-5-o||-1-1-(1)S6-6--6--6-6-6------||
 |------------------------------||-----------------------15\--||

|
 
 |------------------------------||----------------------------||
 |-----------------------------o||----------------------------||
 |-3----------------------------||-3--------------------------||
 |-3---------1-(1)-----1---0-0--||-3---------1-(1)------------||
 |-1---------1-(1)-----1---0-0-o||-1---------1-(1)------------||
 |-1---------1-(1)-----1---0-0--||-1---------1-(1)-------15\--||

Gtr I
 
 ||----------------------------||
 ||o--------------------------o||
 ||----------------------------||
 ||----------------------------||
 ||o--------------------------o||
 ||--0-0-0-0--0-0-0-0-0--0-0---||

Gtrs I, II
 
 |--------------------------|----------------------------||
 |--------------------------|----------------------------||
 |--------------------------|----------------------------||
 |--------------------------|----------------------------||
 |--------------------------|-0-0-0-0--0-0-0-0-0--0-0----||
 |-0-0-0-0--0-0-0-0-0--0-0--|-0-0-0-0--0-0-0-0-0--0-0----||

Bridge
Gtr I
 
 PM--------------------| PM------------------------|

11x
 
 ||----------------------------||--------------------------------|
 ||o--------------------------o||--------------------------------|
 ||----------------------------||--------------------------------|
 ||----------------------------||--------------------------------|
 ||o-0-0-0-0--0-0-0-0-0--0-0--o||-0-0-0-0--0-0-0-0-0--0-0-0-0----|
 ||--0-0-0-0--0-0-0-0-0--0-0---||-0-0-0-0--0-0-0-0-0--0-0-0-0----|

|
| Gtr II
 
 | PM--------------------| PM--------------------|

| 11x
 
 ||----------------------------||--------------------------------|
 ||o--------------------------o||--------------------------------|
 ||----------------------------||--------------------------------|
 ||----------------------------||--------------------------------|
 ||o-0-0-0-0--0-0-0-0-0--0-0--o||-0-0-0-0--0-0-0-0-0--0-0--------|
 ||--0-0-0-0--0-0-0-0-0--0-0---||-0-0-0-0--0-0-0-0-0--0-0--------|

Gtrs I, II
 
 PM-------------------|
 |--------------------|--------------------|------------------------------|
 |--------------------|--------------------|------------------------------|
 |--------------------|--------------------|------------------------------|
 |-1-1-(1)-1-1-1--1---|-1-1-(1)-1-1-1-1--1-|-(1)--------------------------|
 |-1-1-(1)-1-1-1--1-0-|-1-1-(1)-1-1-1-1--1-|-(1)-0-0-0-0-0-0-0-0-0--0-0---|
 |-1-1-(1)-1-1-1--1-0-|-1-1-(1)-1-1-1-1--1-|-(1)-0-0-0-0-0-0-0-0-0--0-0---|
 PM--------------------|
 |--------------------------|-------------------|---------------------|
 |--------------------------|-------------------|---------------------|
 |--------------------------|-------------------|---------------------|
 |--------------------------|-1-1-(1)-1-1-1--1--|-1-1-(1)-1-1-1-------|
 |-0-0-0-0--0-0-0-0-0--0-0--|-1-1-(1)-1-1-1--1--|-1-1-(1)-1-1-1--1S===|
 |-0-0-0-0--0-0-0-0-0--0-0--|-1-1-(1)-1-1-1--1--|-1-1-(1)-1-1-1--1S===|

[G]  
 
 PM------|
 |-----------------|-----------------|
 |-----------------|-----------------|
 |-----------------|-----------------|
 |-5-5-5-5-5-5-5-5-|-5-5-5-5-5-5-5\--|
 |-5-5-5-5-5-5-5-5-|-5-5-5-5-5-5-5\--|
 |-5-5-5-5-5-5-5-5-|-5-5-5-5-5-5-5\--|

tr I Gtrs I, II
 
 PM--------------------| PM--------------------|
 ||----------------------------||-----------------------------||
 ||o--------------------------o||-----------------------------||
 ||----------------------------||-----------------------------||
 ||----------------------------||-----------------------------||
 ||o--------------------------o||-----------------------------||
 ||--0-0-0-0--0-0-0-0-0--0-0---||--0-0-0-0--0-0-0-0-0--0-0----||

Guitar Solo
Gtr III
TP TP TP TP TP
 
 |---------------||---------------------------|------------------------------|
 |-^<5>----------||o--------------------------|------------------------------|
 |-^<5>----------||--7------------------------|-5-----8-(8)---5--------------|
 |-^<5>----------||---------------------------|------------------------------|
 |-^<5>----------||o--------------------------|------------------------------|
 |---------------||---------------------------|------------------------------|

|
| Gtrs I, II
 
 | PM--------------------| PM-----------------------|
 |---------------||---------------------------|------------------------------|
 |---------------||o--------------------------|------------------------------|
 |---0-----------||---------------------------|------------------------------|
 |---5-----------||---------------------------|------------------------------|
 |---------------||o-0-0-0-0--0-0-0-0-0--0-0--|-0-0-0-0-----0-0-0-0-0--0-0---|
 |-----------3\--||--0-0-0-0--0-0-0-0-0--0-0--|-0-0-0-0-----0-0-0-0-0--0-0---|

1.
TP TP
 
 |--------------------------|----------------------------||
 |--------------------------|---------------------------o||
 |-7------------------------|-7--------------------------||
 |--------------------------|-6--------------------------||
 |--------------------------|------------x\-------------o||
 |--------------------------|------------x\--------------||

|
 
 | PM--------------------| PM---------------------|
 |--------------------------|----------------------------||
 |--------------------------|---------------------------o||
 |--------------------------|----------------------------||
 |--------------------------|----------------------------||
 |-0-0-0-0--0-0-0-0-0--0-0--|-0-0-0-0--0-0--0-0-0--0-0--o||
 |-0-0-0-0--0-0-0-0-0--0-0--|-0-0-0-0--0-0--0-0-0--0-0---||

2.
TP
 
 |-----------------------------|
 |-9----------(9)\-------------|
 |-7----------(7)\-------------|
 |-----------------------------|
 |-----------------------------|
 |-----------------------------|

|
 
 | PM-----------------------|
 |-----------------------------|
 |-----------------------------|
 |-----------------------------|
 |-----------------------------|
 |-0-0-0-0--0--0---0-0-0--0-0--|
 |-0-0-0-0--0--0---0-0-0--0-0--|

~~
 
 |--------------------------------|-------------------------------------------------|
 |--------------------------------|----------------------------------10-13p10----10-|
 |---12b14==(12)r==(12)p10-12-----|-(12)\-12b14==(12)r(12)b14---(12)----------12----|
 |--------------------------------|-------------------------------------------------|
 |--------------------------------|-------------------------------------------------|
 |--------------------------------|-------------------------------------------------|

|
 
 |--------------------------------|-------------------------------------------------|
 |--------------------------------|-------------------------------------------------|
 |--------------------------------|-------------------------------------------------|
 |-1--1------(1)-1-------1--1--1--|---1----1------(1)---1-----1---1-----------------|
 |-1--1------(1)-1-------1--1--1--|---1----1------(1)---1-----1---1------1----------|
 |-1--1------(1)-1-------1--1--1--|---1----1------(1)---1-----1---1------1----------|
 |-------------10-(10)------------------------------10-10-------|
 |-10-13p10------------13p12h13p12p10----12b14-(12)-10----13-12-|
 |----------13------------------------12------------------------|
 |--------------------------------------------------------------|
 |--------------------------------------------------------------|
 |--------------------------------------------------------------|

|
 
 | PM-----------------------------------|
 |--------------------------------------------------------------|
 |--------------------------------------------------------------|
 |--------------------------------------------------------------|
 |--------------------------------------------------------------|
 |--0--0--0--0------0---0--0--0--0-----0--0---------------------|
 |--0--0--0--0------0---0--0--0--0-----0--0---------------------|

~~
 
 |--------------------------------------------|
 |--------------------------------------------|
 |-10--------10---12b14---(12)----10----x\----|
 |------12---------------------12-------x\----|
 |--------------------------------------------|
 |--------------------------------------------|

|
 
 | PM-------------------------------------|
 |--------------------------------------------|
 |--------------------------------------------|
 |--------------------------------------------|
 |--------------------------------------------|
 |--0-0----0----0-------0---0---0--0-0--0--0--|
 |--0-0----0----0-------0---0---0--0-0--0--0--|

~~
 
 |---13b15---(13)-----13-13b15==(13)r(13)-|-10---------------------------------------|
 |----------------------------------------|-10-13-10-13--10--------------------------|
 |----------------------------------------|-----------------13-12-10----10-12b14-10--|
 |----------------------------------------|--------------------------12--------------|
 |-x--------------------------------------|------------------------------------------|
 |-x--------------------------------------|------------------------------------------|

|
 
 |----------------------------------------|------------------------------------------|
 |----------------------------------------|------------------------------------------|
 |----------------------------------------|------------------------------------------|
 |-1-------1--(1)-1-1--1----------1-------|--1-----1-(1)--1-----1--1-----------------|
 |-1-------1--(1)-1-1--1----------1-------|--1-----1-(1)--1-----1--1--------1--------|
 |-1-------1--(1)-1-1--1----------1-------|--1-----1-(1)--1-----1--1--------1--------|
 |-------------10----10----------------13---------|
 |-------13b15----13----13-13b15==(13)----13r(13)-|
 |------------------------------------------------|
 |-12\--------------------------------------------|
 |------------------------------------------------|
 |------------------------------------------------|

|
 
 | PM------------------|
 |------------------------------------------------|
 |------------------------------------------------|
 |------------------------------------------------|
 |--5--5--5-----5-----5-----5-----------5--5------|
 |--5--5--5-----5-----5-----5-----------5--5------|
 |--5--5--5-----5-----5-----5-----------5--5------|

3rd Chorus
~~~~~~~
 
 |-15b17-----(15)-15b17r(15)p13-------------||--------------------------||
 |------------------------------15--15pb18==||=(15)----------(15)r\-----||
 |------------------------------------------||--------------------------||
 |------------------------------------------||--------------------------||
 |------------------------------------------||--------------------------||
 |------------------------------------------||--------------------------||

|
 
 |------------------------------------------||---0----0-(0)----0----0---||
 |------------------------------------------||---3----3-(3)----3----3---||
 |------------------------------------------||---2----2-(2)----2----2---||
 |--5----5-5---5---5------5------5\---------||---0----0-(0)----0----0-0-||
 |--5----5-5---5---5------5------5\---------||---0----0-(0)----0----0-0-||
 |--5----5-5---5---5------5------5\---------||---0----0-(0)----0----0-0-||

Gtrs I, II
5x
 
 |------------------||--0---0-(0)--0-0---|----------------------||
 |------------------||o-3---3-(3)--3-3---|---------------------o||
 |-3----------------||--2---2-(2)--2-2---|-3--------------------||
 |-3---1-(1)--1-0-0-||--0---0-(0)--0-0-0-|-3---1-(1)--1-0-0-----||
 |-1---1-(1)--1-0-0-||o-0---0-(0)--0-0-0-|-1---1-(1)--1-0-0----o||
 |-1---1-(1)--1-0-0-||--0---0-(0)--0-0-0-|-1---1-(1)--1-0-0-----||

1.
Gtr III
 
 ||----------------------------|------------------------------||
 ||o---------------------------|-----------------------------o||
 ||--7-7-(7)-7-7-(7)-7-7-7-7-7S|=3-3-(3)S8-8-(8)-8-8-8-8-8-7--||
 ||----------------------------|------------------------------||
 ||o-5-5-(5)-5-5-(5)-5-5-5-5-5S|=1-1-(1)S6-6-(6)-6-6-6-6-6-5-o||
 ||----------------------------|------------------------------||

|
| Gtrs I, II
 
 ||--0---------0-(0)-----0-0---|------------------------------||
 ||o-3---------3-(3)-----3-3---|-----------------------------o||
 ||--2---------2-(2)-----2-2---|-3----------------------------||
 ||--0---------0-(0)-----0-0-0-|-3---------1-(1)-----1---0-0--||
 ||o-0---------0-(0)-----0-0-0-|-1---------1-(1)-----1---0-0-o||
 ||--0---------0-(0)-----0-0-0-|-1---------1-(1)-----1---0-0--||

2.
 
 |------------------------------||
 |------------------------------||
 |-3-3-(3)S8-8---(8)-8-8--------||
 |------------------------------||
 |-1-1-(1)S6-6---(6)-6-6-15\----||
 |-----------------------15\----||

|
 
 |------------------------------||
 |------------------------------||
 |-3----3----3-3----------------||
 |-3----3----3-3--5-------------||
 |-1----1----1-1--1------15\----||
 |-1----1----1-1--1------15\----||

Outro
 
 ||---------------------------|---------------------------||
 ||o--------------------------|--------------------------o||
 ||---------------------------|---------------------------||
 ||--0-0-0-0--0-0-0-0-0--0-0--|-0-0-0-0--0-0-0-0-0--0-0---||
 ||o-0-0-0-0--0-0-0-0-0--0-0--|-0-0-0-0--0-0-0-0-0--0-0--o||
 ||--0-0-0-0--0-0-0-0-0--0-0--|-0-0-0-0--0-0-0-0-0--0-0---||**************************************************************************************


Important: The song above is NOT stored on the Chordie server. The original song is hosted at www.xguitar.com. Chordie works as a search engine and provides on-the-fly formatting. Chordie does not index songs against artists'/composers' will. To remove this song please click here.

Text color:
Chord color:
Chord grids: 
Font size:    
Page size: 

Bb D D5 Dsus2 Eb Eb5 G
Rate #4 of 6 versions

Jango Player

Login - add to songbook

SHARE PAGE  




You need to log in to post comments