Guitar Tabs, Chords and Lyrics
Major upgrade!! After one year development the new version of Chordie is now online! Please give feedback.


Voodoo   Godsmack

 
 ||----------|---------|---------|------------||-----|
 ||o---------|---------|---------|-----------o||-----|
 ||----------|---------|---------|------------||-----|
 ||----------|---------|---------|------------||-----|
 ||o---------|---------|---------|-----------o||-----|
 ||----------|---------|---------|------------||-----|

 


 


 $


 [4/4]  

 
 |---------|----------||---------------|----------|--------------|-----------||
 |---------|--------7-||o-(7)s8s7------|--------7-|-(7)s8s7------|--------7-o||
 |---------|--------6-||--(6)s7s6------|--------6-|-(6)s7s6------|--------6--||
 |---------|--------4-||--(4)s5s4------|--------4-|-(4)s5s4------|--------4--||
 |---------|----------||o--------------|----------|--------------|----------o||
 |---------|----------||---------------|----------|--------------|-----------||

 


 


 Verse


 3x


 

 
 ||---------------|----------|--------------|------------||
 ||o-(7)s8s7------|--------7-|-(7)s8s7------|--------7--o||
 ||--(6)s7s6------|--------6-|-(6)s7s6------|--------6---||
 ||--(4)s5s4------|--------4-|-(4)s5s4------|--------4---||
 ||o--------------|----------|--------------|-----------o||
 ||---------------|----------|--------------|------------||
 PM--------|
 |-----------|---------|----------------|--------||
 |-(7)s8s7---|---------|----------------|--------||
 |-(6)s7s6---|---------|----------------|--------||
 |-(4)s5s4---|---------|-2--2-2-2-2-2-2-|-2------||
 |-----------|---------|-2--2-2-2-2-2-2-|-2------||
 |-----------|---------|-0--0-0-0-0-0-0-|-0------||


Important: The song above is NOT stored on the Chordie server. The original song is hosted at www.xguitar.com. Chordie works as a search engine and provides on-the-fly formatting. Chordie does not index songs against artists'/composers' will. To remove this song please click here.

This song is displayed as text-only. Transposing and tuning is only available for chordpro-songs.
Rate #7 of 7 versions

Jango Player

Login - add to songbook

SHARE PAGE  



You need to log in to post comments