Guitar Tabs, Chords and Lyrics
Major upgrade!! After one year development the new version of Chordie is now online! Please give feedback.


Hate This Place  Goo Goo Dolls

Hate This Place by the Goo Goo Dolls
(tabbed by googoodolls@musicfanclubs.org)
Goo Goo Dolls Web Site: The World of Goo
http://www.musicfanclubs.org/googoodolls/index.html
Chords:
E5 - 022xxx
B5 - x244xx
C#5 - x466xx
A5 - x022xx
G#5 - 466xxx
Intro:
[C#5-B5-A5]  
(guitar 1)
 
 e -----------------|-----------------------------
 B -----------------|-----------------------------
 G -----------------|-----------------------------
 D -----------------|-2h4--2--1-------------------
 A -2h4p2-----------|------------2h4p2------------
 E -----------------|------------------0-2b(3)r-0-

|
(guitar 2)
[C#5] [B5] [A5]  
(guitar 1)
 
 e -----------------|-----------------------------
 B -----------------|-----------------------------
 G -----------------|-----------------------------
 D -----------------|-2h4--2--1-------------------
 A -2h4p2-----------|------------2h4p2------------
 E -----------------|------------------0-2b(3)r-0-

|
(guitar 2)
[C#5] [B5] [A5]  
Verse:
[G#5] [E5]  
Gone away
[B5] [A5]  
Who knows where you been
[E5] [G#5]  
You take all your lies
[B5] [A5]  
And wish them all away
[E5] [G#5]  
I somehow doubt
[B5] [A5]  
We'll ever be the same
[E5] [G#5]  
There's too much poison
[B5] [A5]  
And confusion on your face
Pre-Chorus:
 
 e -----------------|-----------------
 B -----------------|-----------------
 G -----------------|-----------------
 D -6---6-6-6-6-6---|-7---7-7-7-7-7---
 A -6---6-7-6-7-6---|-7---7-9-7-9-7---
 E -4---4-4-4-4-4---|-5---5-5-5-5-5---

Can you feel it I didn't mean it
Can I see you What are we doin'
I think I love you but I ain't sayin'
[B5] [A5]  
nothin' you don't know
Chorus:
[C#5] [B5] [A5] [E5]  
Hold on dreamaway
[C#5] [B5] [A5] [E5]  
You're my sweet charade
(verse)
Take your time
Move yourself to me
Yeah I can take your lies
Until you fall away
You know I'm lost
Hiding in your bed
No I don't think it's wrong
It's just gone to my head
(pre-chorus)
Can you feel it
I didn't mean it
Can I see you
What are we doin'
I think I love you
but I ain't sayin' nothin' you don't know
(chorus)
Hold on dreamaway
You're my sweet charade
Bridge:
[A5]  
Hey whatchya do to me
[E5]  
Would you come back to me
[A5]  
Yeah I can't do another day
[E5]  
I'm not certain of it anyway
[A5]  
I ain't messin' with another life
[E5]  
Can I get along without you
[A5]  
Tell me lies
[C#5] [B5] [A5]  
That you know I need
(chorus till fade out)
Hold on dreamaway
You're my sweet charade
Hold on dreamaway
You're my sweet charade
Hold on dreamaway
Hold on dreamaway
This file is copyright googoodolls@musicfanclubs.org, 1998. You are
free to use it for your personal or educational use, but permission must
be granted to post this transcription. Thank you.

Important: The song above is NOT stored on the Chordie server. The original song is hosted at www.xguitar.com. Chordie works as a search engine and provides on-the-fly formatting. Chordie does not index songs against artists'/composers' will. To remove this song please click here.

Text color:
Chord color:
Chord grids: 
Font size:    
Page size: 

A5 B5 C#5 E5 G#5
Rate #1 of 2 versions

Login - add to songbook

SHARE PAGE  




You need to log in to post comments