Guitar Tabs, Chords and Lyrics
Major upgrade!! After one year development the new version of Chordie is now online! Please give feedback.


Cuz You're Gone  Goo Goo Dolls

Cuz You're Gone by the Goo Goo Dolls
(tabbed by googoodolls@musicfanclubs.org)
Goo Goo Dolls Web Site: The World of Goo
http://www.musicfanclubs.org/googoodolls/index.html
Solo tabbed by Johnny O
E5(VII) - x799xx
F#5(IX) - x9(11)(11)xx
A5(VII) - xx79(10)xx
Intro:
(riff 1)
(Guitar 1)
 
 e ---------------------|---------------|-------------------|--------
 B ---------------------|---------------|-------------------|--------
 G --6--7-7p6h7p6h7--7--|-9--9-7p6h7p6--|--6--7-7p6h7p6h7p6h7p6------
 D --7--7-7-7-7-7-7--7--|-7--7-7-7-7-7--|-------------------|---9-7--
 A ---------------------|---------------|-------------------|--------
 E ---------------------|---------------|-------------------|--------

(Play 4 times)
(Guitar 2, in on third repeat)
F#5-E5(VI)-D5
[F#5-D5-A5]  
(Play 2 times)
(verse)
[F#5]  
You whispered in my mouth
E5(VII)
And I spit your words right back
[F#5]  
How good do you think I'll look
A5(VII) E5(VII)
When the words start to break and crack
(bridge)
 
 e ----------------|---------------|-------------------------------
 B ----------------|---------------|-------------------------------
 G -------11-------|------9--------|-----6-7p6---6-7p6---6-7p6---6-
 D ----11----------|----9----------|---7-------7-------7-------7---
 A --9-------------|--7------------|-5-----------------------------
 E ----------------|---------------|-------------------------------

You beat your head upon your wall
You disconnect yourself from it all
'Cause you know that you're so beautiful and so untouchable
And I want to get in so bad, and I don't know how
F#5(IX) E5(VII)
No I don't know how
(chorus)
(play intro 2 times)
'Cause you're gone, and you ain't coming back
Yeah you're gone, and you ain't coming back
(verse)
You held your hand so close
And I just can't push you away
I wished you could be my girl
But you're stuck in your a grown-up world
(bridge)
You beat your head upon your wall
You disconnect yourself from it all
'Cause you know that you're so beautiful and so untouchable
And I want to get in so bad, and I don't know how
No I don't know how
(chorus)
'Cause you're gone, and you ain't coming back
Yeah you're gone, and you ain't coming back
(solo)
Guitar1:
 
 e ----------------------------------------------------------------------
 B ------------17-17fb&r-17--15-14-15-14-----------14-15-14--------------
 G -16p14-14-14--------------------------16-14--16----------16-14--16-14-
 D ----------------------------------------------------------------------
 A ----------------------------------------------------------------------
 E ----------------------------------------------------------------------
 e ----------------------------------------------------------------------
 B ----------------------------------------------------------------------
 G 14-14--16fb&r(16)p14---14------------13--14p13-13--14-13--16-13-14-13-
 D --------------------16---16-16--14-14--14-----------------------------
 A ----------------------------------------------------------------------
 E ----------------------------------------------------------------------
 e ----------------------------------------------------------------------
 B ----------------------------------------------------------------------
 G 16---13---14---13----13---14hold\\9hold\2-----------------------------
 D ----------------------------------------------------------------------
 A ----------------------------------------------------------------------
 E ----------------------------------------------9\\\\\\\\\\\\\\(2)------

strike hard & slide
Palm Mute End P.M.
 
 e ----------------------------------------------------------------------
 B ----------------------------------------------------------------------
 G -------------------------------------------------14-14-16p14-16p14----
 D -----2-2-/4-4-/6-6-/7-7-/9-9-/11-11-/14-14-/16-16---------------------
 A -4-4------------------------------------------------------------------
 E ----------------------------------------------------------------------
 e ----------------------------------------------------------------------
 B ----------------------------------------------------------------------
 G 16fb---16fb-----16pb&r(16)p14--------14-------------------------------
 D ----------------------------------------16----------------------------
 A ----------------------------------------------------------------------
 E ----------------------------------------------------------------------

Guitar 2:
F#5-E5(VII)-D5
F#5-E5(VII)-D5
A5(VII)-E5(VII)-A5
F#5-E5(VII)-D5
(bridge)
You beat your head upon your wall
You disconnect yourself from it all
'Cause you know that you're so beautiful and so untouchable
And I want to get in so bad, and I don't know how
And I don't know how
(chorus)
'Cause you're gone, and you ain't coming back
Yeah you're gone, and you ain't coming back
 
 e ---------------------|---------------|----------
 B ---------------------|---------------|--10------
 G --6h7p6h7p6----------|-9-------------|--9-------
 D --7-7-7-7-7----------|-7-------------|--7-------
 A ---------------------|---------------|----------
 E ---------------------|---------------|----------

Yeah you're gone, and I wish you'd come back
This file is copyright googoodolls@musicfanclubs.org, 1997. You are
free to use it for your personal or educational use, but permission must
be granted to post this transcription. Thank you.

Important: The song above is NOT stored on the Chordie server. The original song is hosted at www.xguitar.com. Chordie works as a search engine and provides on-the-fly formatting. Chordie does not index songs against artists'/composers' will. To remove this song please click here.

Text color:
Chord color:
Chord grids: 
Font size:    
Page size: 

F#5
Rate #2 of 3 versions

Login - add to songbook

SHARE PAGE  




You need to log in to post comments