Guitar Tabs, Chords and Lyrics
Major upgrade!! After one year development the new version of Chordie is now online! Please give feedback.


Jamie Thomas  Graham Coxon

THE GOLDEN D
DROPPED D TUNING
intro
 
 ------------------------------
 ------------------------------
 -7/9-9-9--7-9-9-9--7-9--------
 -7/9-9-9--7-9-9-9--7-9--------drums
 -5/7-7-7--5/7-7-7--5/7--------
 ------------------------------
 ------------------------------
 ------------------------------
 -7/9-9-9--7-9-9-9--7-9--------
 -7/9-9-9--7-9-9-9--7-9--------drums
 -5/7-7-7--5/7-7-7--5/7--------
 ------------------------------
 ------------------------------------
 -------------------------10b12--8---
 -7/9-9-9--7-9-9-9--7-9--------------
 -7/9-9-9--7-9-9-9--7-9--------------
 -5/7-7-7--5/7-7-7--5/7--------------
 ------------------------------------
 ---------------------------
 ---------------------------
 -7/9-9-9--7-9-9-9----------
 -7/9-9-9--7-9-9-9----------
 -5/7-7-7--5/7-7-7----------
 ---------------------------

verse
=====
[E5] [Bb5]  
 
 |e------------------------------|
 |B------------------------------|
 |G------------------------------|
 |D------------------------------|
 |A-X-X-2-X-X-2-X-8-8-8-8--------|
 |D-X-X-2-X-X-2-X-8-8-8-8--------|

jamiethomasjamiethomas, etc.
[E5] [C5] [E5] [C5] [E5] [C5] [D5/E5] [D5/E5] [D5/E5] [D5/E5]  
 
 singing------------------------)
 ------------------------------
 ------------------------------
 -7/9-9-9--7-9-9-9--7-9--------
 -7/9-9-9--7-9-9-9--7-9--------drums
 -5/7-7-7--5/7-7-7--5/7--------
 ------------------------------
 ------------------------------
 ------------------------------
 -7/9-9-9--7-9-9-9--7-9--------
 -7/9-9-9--7-9-9-9--7-9--------drums
 -5/7-7-7--5/7-7-7--5/7--------
 ------------------------------

SOLO
====
N.C.
 
 |-10b11----------------------------------------------------------------12b13r12vvv--|
 |-------x----------x------------------------------------------15vvvvvv--------------|
 |---------3b4vvvv----3b4vvvv---0h7h9--11b12vvv-----12vvvvvv-------------------------|
 |-----------------------------------------------------------------------------------|
 |-----------------------------------------------------------------------------------|
 |-----------------------------------------------------------------------------------|
 repeat this bit once---------------------------------------------------------------|

[E5] [D5] [C5]  
 
 |---------------------------|-------------------------------------|------------------|
 |---------------------------|-------------------------------------|------------------|
 |-9--9-9-12--9--12-9-12-7-9-|-9-9-12-9--12-9--12-14--14b16r14---9-|--7p4-------------|
 |-9--9---12-----------------|-------------------------------------|------7b8r7-------|
 |---------------------------|-------------------------------------|-------------5\2--|
 |---------------------------|-------------------------------------|------------------|
 ------------------------------
 ------------------------------
 -7/9-9-9--7-9-9-9--7-9--------
 -7/9-9-9--7-9-9-9--7-9--------drums
 -5/7-7-7--5/7-7-7--5/7--------
 ------------------------------
 ------------------------------
 ------------------------------
 -7/9-9-9--7-9-9-9--7-9--------
 -7/9-9-9--7-9-9-9--7-9--------drums
 -5/7-7-7--5/7-7-7--5/7--------
 ------------------------------
 ------------------------------------
 -------------------------10b12--8---
 -7/9-9-9--7-9-9-9--7-9--------------
 -7/9-9-9--7-9-9-9--7-9--------------
 -5/7-7-7--5/7-7-7--5/7--------------
 ------------------------------------
 ---------------------------
 ---------------------------
 -7/9-9-9--7-9-9-9----------
 -7/9-9-9--7-9-9-9----------
 -5/7-7-7--5/7-7-7----------
 ---------------------------

verse
=====
[E5]jami[Bb5]ethomas[E5]jami[Bb5]ethomas, etc.
fill
 
 A-------------7p5------|
 D---0h2--5--0-----8\7--|

[E5] [C5] [E5] [C5] [E5] [C5] [D5/E5] [D5/E5] [D5/E5] [D5/E5]  
 
 singing------------------------)

[E5] [C5] [E5] [C5] [E5] [C5] [D5/E5] [D5/E5] [D5/E5] [D5/E5]  
 
 singing------------------------)


Important: The song above is NOT stored on the Chordie server. The original song is hosted at www.xguitar.com. Chordie works as a search engine and provides on-the-fly formatting. Chordie does not index songs against artists'/composers' will. To remove this song please click here.

Text color:
Chord color:
Chord grids: 
Font size:    
Page size: 

Bb5 C5 D5 E5
Rate #3 of 5 versions

Jango Player

Login - add to songbook

SHARE PAGE  




You need to log in to post comments