Guitar Tabs, Chords and Lyrics
Major upgrade!! After one year development the new version of Chordie is now online! Please give feedback.


Keep Hope Alive  Graham Coxon

THE GOLDEN D
NORMAL TUNING
VERSE
=====
[Em] [Am]  
 
 |---------------0------0--|-0--0------0--0----0---------0--|
 |----0----------0------0--|-3--1------1--3---/5---------5--|
 |----0--0--2--/-4------4--|-2--2---2--2--2---/5------5--5--|
 |----2--2--2--/-5--5---5--|-2--2---2-----2---/5------5--5--|
 |-2-----2--2--/-5--5------|-0--0---0----------0--0-0-0-----|
 |-0-----0--0----0--0------|--------------------------------|

CHORUS
=======
[G] [F#] [F] [Em]  
 
 |------------------|--------------------|--------------------0----0---|
 |------------------|--------------------|----0---------------0----0---|
 |-----4---5--4-----|------3---------2---|----0-------0--2---/4----4---|
 |---5---5------5---|----4---4-------3---|---/9-------2--2---/5--5-5---|
 |------------------|--------4-----3-----|---/7----2--2--2---/5--5-----|
 |-3--------------3-|-2---------1------1-|---------0--0--0----0--0-----|


Important: The song above is NOT stored on the Chordie server. The original song is hosted at www.xguitar.com. Chordie works as a search engine and provides on-the-fly formatting. Chordie does not index songs against artists'/composers' will. To remove this song please click here.

Text color:
Chord color:
Chord grids: 
Font size:    
Page size: 

Am Em F F# G
Rate #1 of 1 versions

Login - add to songbook

SHARE PAGE  



You need to log in to post comments