Guitar Tabs, Chords and Lyrics
Major upgrade!! After one year development the new version of Chordie is now online! Please give feedback.


The Fear  Graham Coxon

THE GOLDEN D
DROPPED D TUNING
INTRO/CHORUS
=============
[C5] [F5] [D5] [C5] [F5] [D5]  
 
 |------------------------------|---------------------------------|
 |------------------------------|---------------------------------|
 |------------------------------|---------------------------------|
 |---------------------10---7---|------------------------10---7---|
 |-10--10--10--10--10--8----5---|----10--10--10--10--10--8----5---|
 |-10--10--10--10--10-----------|----10--10--10--10--10-----------|

[Ab5] [F5] [D5] [Ab5] [F5] [D5]  
 
 |------------------------------|---------------------------------|
 |------------------------------|---------------------------------|
 |------------------------------|---------------------------------|
 |------------------------------|---------------------------------|
 |-6--6-6-6-6-----3----0--------|-----6--6--6-6-6---3---0---------|
 |-6--6-6-6-6-----3----0--------|-----6--6--6-6-6---3---0---------|

[C5] [Eb5]  
 
 |------------------------------------------------------------------|
 |------------------------------------------------------------------|
 |------------------------------------------------------------------|
 |------------------------------------------------------------------|
 |-10--10--10---10--10---13--13~------------------------------------|
 |-10--10--10---10--10---13--13~------------------------------------|

VERSE
=====
 
 |---------------------------------------------------------------------------------|
 |---------------------------------------------------------------------------------|
 |---------------------------------------------------------------------------------|
 |--------------------------------------------------9b10---------------------9b10--|
 |--10--4---10---4--3---1-----10--10---11--10---10--------10--10-11-10---10--------|
 |--10--4---10---4--3---1-----10--10---11--10---10--------10--10-11-10---10--------|

[C5] [F5] [D5] [C5] [F5] [D5]  
 
 |------------------------------|---------------------------------|
 |------------------------------|---------------------------------|
 |------------------------------|---------------------------------| repeat
 |---------------------10---7---|------------------------10---7---|
 |-10--10--10--10--10--8----5---|----10--10--10--10--10--8----5---|
 |-10--10--10--10--10-----------|----10--10--10--10--10-----------|

The fear the fear the fear the fear the fear
[Ab5] [F5] [D5] [Ab5] [F5] [D5]  
 
 |------------------------------|---------------------------------|
 |------------------------------|---------------------------------|
 |------------------------------|---------------------------------|
 |------------------------------|---------------------------------|
 |-6--6-6-6-6-----3----0--------|-----6--6--6-6-6---3---0---------|
 |-6--6-6-6-6-----3----0--------|-----6--6--6-6-6---3---0---------|

the fear the fear the fear
[C5] [Eb5]  
 
 |------------------------------------------------------------------|
 |------------------------------------------------------------------|
 |------------------------------------------------------------------|
 |------------------------------------------------------------------|
 |-10--10--10---10--10---13--13~------------------------------------|
 |-10--10--10---10--10---13--13~------------------------------------|

OUTRO
======
 
 |------------------------------------------------------------------|
 |------------------------------------------------------------------|
 |------------------------------------------------------------------|
 |------------------------------------------------------------------|
 |------------------------------------------------------------------|
 |--10--10--10-10-11-10--10--10/13--13--13--13-14-13--13--13--------|

[C5] [F5] [D5] [C5] [F5] [D5]  
 
 |------------------------------|---------------------------------|
 |------------------------------|---------------------------------|
 |------------------------------|---------------------------------| repeat
 |---------------------10---7---|------------------------10---7---|
 |-10--10--10--10--10--8----5---|----10--10--10--10--10--8----5---|
 |-10--10--10--10--10-----------|----10--10--10--10--10-----------|

The fear the fear the fear the fear the fear
[Ab5] [F5] [D5] [Ab5] [F5] [D5]  
 
 |------------------------------|---------------------------------|
 |------------------------------|---------------------------------|
 |------------------------------|---------------------------------|
 |------------------------------|---------------------------------|
 |-6--6-6-6-6-----3----0--------|-----6--6--6-6-6---3---0---------|
 |-6--6-6-6-6-----3----0--------|-----6--6--6-6-6---3---0---------|

the fear the fear the fear
[C5] [Eb5]  
 
 |-----------------------------------|
 |-----------------------------------|
 |-----------------------------------|
 |-----------------------------------|
 |-10--10--10---10--10---13--13~-----|
 |-10--10--10---10--10---13--13~-----|
 |---------------------------|
 |---------------------------|
 |---------------------------|
 |---------------------------|
 |--10--4---10---4--3---1~~~~|
 |--10--4---10---4--3---1~~~~|


Important: The song above is NOT stored on the Chordie server. The original song is hosted at www.xguitar.com. Chordie works as a search engine and provides on-the-fly formatting. Chordie does not index songs against artists'/composers' will. To remove this song please click here.

Text color:
Chord color:
Chord grids: 
Font size:    
Page size: 

Ab5 C5 D5 Eb5 F5
Rate #1 of 2 versions

Jango Player

Login - add to songbook

SHARE PAGE  




You need to log in to post comments