Guitar Tabs, Chords and Lyrics
Major upgrade!! After one year development the new version of Chordie is now online! Please give feedback.


Waiting  Green Day

By Brian S.
Intro : Clean
 
 e---------------------------------------------------------|
 b---------------------------------------------------------|
 g--------------6--6--6--6--6--6-------------6--6--6---6---|
 d--6--6--6--6--6--6--6--6--6--6----8--8--8--6--6--6---6---|
 a--6--6--6--6--4--4--4--4--4--4----8--8--8--4--4--4---4---|
 e--4--4--4--4----------------------6--6--6----------------|

I've been waiting a long time for this moment to come.
 
 e---------------------------------------------------------|
 b---------------------------------------------------------|
 g--------------6--6--6--6--6--6-------------6--6--6---6---|
 d--6--6--6--6--6--6--6--6--6--6----8--8--8--6--6--6---6---|
 a--6--6--6--6--4--4--4--4--4--4----8--8--8--4--4--4---4---|
 e--4--4--4--4----------------------6--6--6----------------|

I'm destined for anything at all-all.
Intro/Verse : Dirty Electric
 
 e--------------------------------------------------------|
 b--------------------------------------------------------|
 g--------------6--6--6--6--6--6-------------6--6--6--6---|
 d--6--6--6--6--6--6--6--6--6--6----8--8--8--6--6--6--6---|
 a--6--6--6--6--4--4--4--4--4--4----8--8--8--4--4--4--4---|
 e--4--4--4--4----------------------6--6--6---------------|

Downtown....
Chorus :
 
 e-----------------------------------------------------------|
 b-----------------------------------------------------------|
 g-------------------------------3--3--3--3--8-8-8-8-8-8-8---|
 d------3--3--3--3---2--2--2--2--3--3--3--3--8-8-8-8-8-8-8---|
 a------3--3--3--3---2--2--2--2--1--1--1--1--6-6-6-6-6-6-6---|
 e------1--1--1--1---0--0--0--0------------------------------|

Well I'm so much closer than i have ever know.
(Chorus Before Solo)
 
 e---------|------------------|-----------------------|----------------|
 b---------|.-----------------|----------------------.|----------------|
 g---------|-6--6--6--6--6--6-|---6--6--6--6--6--6--6-|--8-8-8-8-8-8-8-|
 d---------|-6--6--6--6--6--6-|---6--6--6--6--6--6--6-|--8-8-8-8-8-8-8-|
 a---------|.4--4--4--4--4--4-|---4--4--4--4--4--4--4.|--6-6-6-6-6-6-6-|
 e---------|----------4--4--4-|------4-----4-----4----|----------------|
 Wake Up.. 2x ---------------------------------------^ 

Solo :
 
 e-----------------------------------------------------------------|
 b-----------------------------------------------------------------|
 g--/8~~--5~~~~--3--5--6--5--3~~~~-1/8~~--5~~~~--3--5--6~--5--3~~~-|
 d-----------------------------------------------------------------|
 a-----------------------------------------------------------------|
 e-----------------------------------------------------------------|
 e------------------------------------------------------|
 b-------------------------------3~----6~p3-------------|
 g-/5~~--1~~~-3--5--6--5--3~--3~----3-------3~--1~~~~/--|
 d------------------------------------------------------|
 a------------------------------------------------------|
 e------------------------------------------------------|

[F] [Em]  
 
 e--------------8--------11-8-----8-------11-8------8---|
 b------------9---9----9--------9---9---9---------9---9-|
 g---------10-------10--------9-------9---------8-------|
 d------------------------------------------------------|
 a------------------------------------------------------|
 e------------------------------------------------------|

(Well... Im so much closer than...)
 
 e-------11-8-------------|-------------------|
 b-----9------------------|-------------------|
 g---8--------8~~~--/3~~~-|--6-6-6--6-6-6-----|
 d------------------------|--6-6-6--6-6-6-----|
 a------------------------|--4-4-4--4-4-4-----|
 e------------------------|---------4-4-4-----|

etc.

Important: The song above is NOT stored on the Chordie server. The original song is hosted at www.xguitar.com. Chordie works as a search engine and provides on-the-fly formatting. Chordie does not index songs against artists'/composers' will. To remove this song please click here.

Text color:
Chord color:
Chord grids: 
Font size:    
Page size: 

Em F
Rate #16 of 18 versions

Jango Player

Login - add to songbook

SHARE PAGE  




You need to log in to post comments