Guitar Tabs, Chords and Lyrics
Major upgrade!! After one year development the new version of Chordie is now online! Please give feedback.


Sexecutioner   GWAR

 
 ||--x\--||-------------------------------------||
 ||--x\--||*-----------------------------------*||
 ||------||-------------------5----5----5-5-5---||
 ||---s--||*--4----4----4-4-4-5----5----5-5-5--*||
 ||--x\--||---4----4----4-4-4-3----3----3-3-3---||
 ||--x\--||---2----2----2-2-2-------------------||

 


 


 Verse Riff B:


 

 
 ||---------------------------------------||
 ||*-------------------------------------*||
 ||----------------------s-----s-----s----||
 ||*--2-4-4-4--4-4-4-4--5\4---5\4---5\4--*||
 ||---2-4-4-4--4-4-4-4--3\2-0-3\2-0-3\2---||
 ||---0-2-2-2--2-2-2-2--------------------||

 


 


 Pre Chorus: fill:


 

 
 ||--------------------|-----|-------------------|------||
 ||*-------------------|-----|-------------------|-----*||
 ||----s-----s-----s---|-----|---s-----s-----s---|------||
 ||*--7\5---7/8---7\5--|-----|--7\5---7/8---7\5--|--4--*||
 ||---5\3-0-5/6-0-5\3--|-----|--5\3-0-5/6-0-5\3--|--2---||
 ||--------------------|-----|-------------------|------||

 


 [s]  

 
 |-------------------------------------||--x\--||
 |-------------------------------------||--x\--||
 |-----7-----7-----7-----7-------------||------||
 |--5--5--5--5--5--5--5--5--5--4-------||---s--||
 |--3-----3-----3-----3-----3--4-------||--x\--||
 |-----------------------------2-------||--x\--||

 


 


 Chorus:


 

 
 ||------------------------------------||
 ||*----------------------------------*||
 ||-------------------s-----s-----s----||
 ||*--4--2--4--2--4--5\4---5\4---5\4--*||
 ||---4--2--4--2--4--3\2-0-3\2-0-3\2---||
 ||---2--0--2--0--2--------------------||

 


 


 Bridge:


 

 
 ||-------------------------------------|----------------------------------||
 ||*------------------------------------|---------------------------------*||
 ||--4-4-4-4-4-4-4-4--5-5-5-5-5-5-5-5-7-|-5-5-5-5-7--5-5-5-5-7--5-5-5-5-7--||
 ||*-4-4-4-4-4-4-4-4--5-5-5-5-5-5-5-5-7-|-5-5-5-5-7--5-5-5-5-7--5-5-5-5-7-*||
 ||--2-2-2-2-2-2-2-2--3-3-3-3-3-3-3-3-5-|-3-3-3-3-5--3-3-3-3-5--3-3-3-3-5--||
 ||-------------------------------------|----------------------------------||


Important: The song above is NOT stored on the Chordie server. The original song is hosted at www.xguitar.com. Chordie works as a search engine and provides on-the-fly formatting. Chordie does not index songs against artists'/composers' will. To remove this song please click here.

This song is displayed as text-only. Transposing and tuning is only available for chordpro-songs.
Rate #1 of 1 versions

Jango Player

Login - add to songbook

SHARE PAGE  




You need to log in to post comments