Guitar Tabs, Chords and Lyrics
Major upgrade!! After one year development the new version of Chordie is now online! Please give feedback.


Life on Standby   Hawthorne Heights

 
 ---------------
 ---------------
 ---------------
 -222---------X7
 -222---------
 -000---------

 


 


 Then both guitars


 

 
 --------------
 --------------
 --------------
 -22---22----
 -22---22----
 -00---00----

 


 ???.


 


 Guitar 1 (figure out strumming)


 

 
 --------------------------------------------------------------------------
 ----------------------------------------------------------5----5-------
 -12---11---12-----------12---11---7-------------------------7-5--------
 -x----x-----x-----------x----x----x-----------22---22--------------2---- X2
 -10---9-----10----------10---9----5-----------22---22--------------2----
 ----------------------------------------------00---00--------------0----

 


 ???


 Guitar 2


 

 
 ----------------------------------------------------------------
 ----------------------------------------------------------------
 ----12---11---2----------------12---11----2-------7---5-----
 22--x----x----2---------22-----x----x-----2-------7---5---2- X2
 22--10---9----0---------22-----10---9-----0-------5---3---2-
 00----------------------00--------------------------------0-

 


 ? ..


 


 


 


 Then Both guitars except the harmonic (Figure out strumming)


 

 
 -------------
 -------------
 ----------(7)
 -2-------(5)
 -2----------
 -0----------

 


 ??


 


 VERSE


 


 Guitar 1


 

 
 ----------------------------------------------------------------------------------------------------
 -------------------------------------------------7-------------------------------------------------
 --------------11---------------7------------------------------11------------------11--------------- X2
 ----------12------------------------------------------------12---12---12-------------12-----12-------
 ----10------------------5---------------5---5--------10-------------10-------10---------10---------
 -12---12-------------5---5-----------8---8---------12---12-----------------12---12-----------------

 


 


 Guitar 2( with volume swells)


 

 
 -17-----15--------------------
 -----15---------17--------9--
 -------------16----14--------- X2
 ------------------------14-----
 --------------------------------
 --------------------------------

 


 


 Guitar 1 repeats first part of the verse


 


 Guitar 2 plays over guitar one


 

 
 -15p12----14----15p12-----14------------12p10-----10-12p10-----10---------------------
 -------15-------------15-----//17--------------12-----------12------//8---------------
 --------------------------------------------------------------------------------------
 --------------------------------------------------------------------------------------
 --------------------------------------------------------------------------------------
 --------------------------------------------------------------------------------------

 


 


 


 


 


 Guitar 2 continued(volume swells)


 

 
 -----------------
 ------------10--
 -12-------------
 ----12-7------
 -----------------
 -----------------

 


 


 CHORUS


 


 Both guitars(figure out strumming)


 

 
 -----------------------------------------------------------------
 -----------------------------------------------------------------
 -5---/7---5---/7----------9--------7----------5--------4//5-- X2
 -5---/7---5---/7----------x--------x----------x--------x//x--
 -3---/5---3---/5----------7--------5----------3--------2//3--
 ----------------------000------000------000------000-------

 


 ... ... ... ...


 


 Then on last time both guitars play


 

 
 ----------
 ----------
 -5---7---
 -5---7---
 -3---5---
 ----------

 


 


 Then play


 


 VERSE


 


 CHORUS


 


 Then comes the weird thingy


 

 
 ----------------------
 ----------------------
 ----------------------
 ---9----7---5---7---
 ---7----5---3---5---
 -0----0---0---0-----

 


 


 THEN THERES A MOMENT OF SILENCE


 


 


 THEN YOU HEAR GUITAR 1 COME IN


 

 
 -------------
 -------------
 -55---55--- X2
 -55---55---
 -33---33---
 -------------

 


 


 THEN GUITAR 2 COMES IN


 

 
 -------------------------------------
 -------------------------------------
 -------------------------55---55---
 -22---22---22---22-------55---55--- X2
 -22---22---22---22-------33---33---
 -00---00---00---00---------------

 


 


 ON THE SECOND TIME ON GUITAR 2?s PART GUITAR ONE PLAYS


 

 
 ------------------------
 -8---3---5---3/////----
 -7---2---4---2/////----
 ------------------------
 ------------------------
 ------------------------

 


 


 THEN GUITAR 1 PLAYS THIS THE REST OF THE SONG(figure out strumming)


 

 
 ------------
 ------------
 -5---------
 -5---2----
 -3---2----
 -----0-----

 


 


 GUITAR 2 IS PLAYING A LEAD BUT YOU


 CAN?T HEAR IT DO TO THE SCREAMING


 SO I MADE MY OWN


 


 

 
 ------------------------------------------------------------------
 -12-----13------12------13-12-------------------------------------
 ---12-12---12-12---12-12-----12---10-----11-------10-----11-10----
 ------------------------------------11-11---11-11---11-11-----11-- X2
 ------------------------------------------------------------------
 ------------------------------------------------------------------

 


 


 


 


 THEN GUITAR 2 PLAYS THIS OVER GUITAR 1


 

 
 -14--------19--------14-------15-14-----------
 ----15-15----15-15-------15-15-------15-------
 ----------------------------------------------
 ---------------------------------------------- X3
 ----------------------------------------------
 ----------------------------------------------

 


 


 AFTER THIRD TIME GUITAR 2 PLAYS


 

 
 --------------------------------
 -7-----8-----7-----8-7-----
 ---7-7---7-7---7-7------7---
 -------------------------------
 -------------------------------
 -------------------------------

 


 


 LAST CHORD PLAYED


 

 
 ------
 ------

 


 [-5---]  


 [-5---]  


 [-3---]  


 

 
 ------


Important: The song above is NOT stored on the Chordie server. The original song is hosted at www.xguitar.com. Chordie works as a search engine and provides on-the-fly formatting. Chordie does not index songs against artists'/composers' will. To remove this song please click here.

This song is displayed as text-only. Transposing and tuning is only available for chordpro-songs.
Rate #4 of 4 versions

Login - add to songbook

SHARE PAGE  




You need to log in to post comments