Guitar Tabs, Chords and Lyrics
Major upgrade!! After one year development the new version of Chordie is now online! Please give feedback.


Push   Helloween

 
 E|-------------------------------------------------------------------------------|
 B|-------------------------------------------------------------------------------|
 G|-------------------------------------------------------------------------------|
 D|-------------------------------------------------------------------------------|
 A|-------------------------------------------------------------------------------|
 E|0-0-0-0-0-0-0-0-0-0-0-0-0-0-0-0-0-0-0-0-0-0-0-0-0-0-0-0-0-0-0-0-0-0-0-0-0-0-0--|

 


 | P.M............ ALL


 


 

 
 E|-------------------------------------------------------------------------------|
 B|-------------------------------------------------------------------------------|
 G|-------------------------------------------------------------------------------|
 D|-------------------------------------------------------------------------------|
 A|---------------------3-3-3-3-3-3-3-3-3-3-3-3-3-3-3-3-3-3-3-3-3-3-3-3-3-3-3-3-3-|
 E|---0-0-0-0-0-0-0-0-0-----------------------------------------------------------|

 


 | P.M............ ALL


 


 

 
 E|-------------------------------------------------------------------------------|
 B|-------------------------------------------------------------------------------|
 G|-------------------------------------------------------------------------------|
 D|-------------------------------------------------------------------------------|
 A|---3-3-3-3-3-3-3-3-3-3-3-3-3-3-3-3-3-3-3-5-5-5-5-5-5-5-5-5-5-5-5-5-5-5-5-5-5-5-|
 E|-------------------------------------------------------------------------------|

 


 | P.M............ ALL


 


 

 
 E|-------------------------------------------------------------------------------|
 B|-------------------------------------------------------------------------------|
 G|-------------------------------------------------------------------------------|
 D|-------------------------------------------------------------------------------|
 A|---5-5-5-5-5-5-5-5-5-5-5-5-5-5-5-5-5-5-5-5-5-5-5-5-5-5-5-5-5-5-5-5-5-5-5-5-5-5-|
 E|-------------------------------------------------------------------------------|

 


 | P.M............ ALL


 


 

 
 E|----------------------------------------|
 B|----------------------------------------|
 G|----------------------------------------|
 D|------------------------5--4-5--7--9----|
 A|---5-5-5-5-5-5-5-5-5-5--5--4-5--7--9----|
 E|------------------------3--2-3--5--7----|

 


 | P.M.............. |


 


 GUITAR 2 ( PLAYS ONE NOTE EVERY THIRD NOTE AS GUITAR 1 PLAYS )


 

 
 E|-------------------------------------------------------------------------------|
 B|-------------------------------------------------------------------------------|
 G|-------------------------------------------------------------------------------|
 D|-------------------------------------------------------------------------------|
 A|---7-7-7-7-7-7-7-7-7-7-7-7-7-7-7-7-3-3-3-3-3-3-3-3-3-3-3-3-3-3-3-3-5-5-5-5-5-5-|
 E|-------------------------------------------------------------------------------|

 


 | P.M........... ALL


 


 

 
 E|--------------------------|
 B|--------------------------|
 G|--------------------------|
 D|--------------------------|
 A|---5-5-5-5-5-5-5-5-5-5----|
 E|--------------------------|

 


 ................... |


 


 AFTER RIFF 1 COMES RIFF B X 2


 

 
 E|-------------------------------------------------------------------------------|
 B|-------------------------------------------------------------------------------|
 G|------9-5---------------------------9-7--------------------------9-5-----------|
 D|---2--9-5------------------------2--9-7--4--------------------2--9-5-----------|
 A|---2--7-3--3-3-3-5-5-5-7-7-7-10--2--7-5----7-5-4--------------2--7-3-3-3-3-5-5-|
 E|---0-----------------------------0---------------7-5-4-2-0-2--0----------------|

 


 | P.M............... | | P.M......


 


 

 
 E|-------------------------------|
 B|-------------------------------|
 G|-------------------------------|
 D|---------------5--7-5--4--2----|
 A|---5-7-7-7-10--5--7-5--4--2----|
 E|---------------3--5-3--2--0----|

 


 ........... |


 


 VERSE:


 

 
 E|--------------------------------------------------------------------------|
 B|--------------------------------------------------------------------------|
 G|--------------------------------------------------------------------------|
 D|---2---3--5--2---3---5--6--2---3---5--6--2---3---5--6--2------------------|
 A|---2---3--5--2---3---5--6--2---3---5--6--2---3---5--6--2--10-9-7-9-7-5----|
 E|---0---1--3--0---1---3--4--0---1---3--4--0---1---3--4--0------------------|

 


 | P.M........ |


 


 BRIDGE 1:


 

 
 E|----------------------------------------------------------------------|
 B|----------------------------------------------------------------------|
 G|-------5---7-----------5---7-----------5---7-----------5---7-----5----|
 D|---7---5---7---5---7---5---7---5---7---5---7---5---7---5---7---5-5----|
 A|---7---3---5---5---7---3---5---5---7---3---5---5---7---3---5---5-3----|
 E|---5-----------3---5-----------3---5-----------3---5-----------3------|

 


 


 CHORUS: X 2


 

 
 E|----------------------------------------------------------------------------|
 B|----------------------------------------------------------------------------|
 G|----------------------------------------------------------------------------|
 D|----------------------------------------------------------------------------|
 A|---7-7-7-7-7-7-7-7-7-7-7-7-7-7-7-7-7-7-7-7-7-7-7-7-7-7-7-7-7-7-7-7-5-5-5-5--|
 E|----------------------------------------------------------------------------|

 


 | P.M................ ALL


 


 

 
 E|----------------------------------------------------------------------------|
 B|----------------------------------------------------------------------------|
 G|----------------------------------------------------------------------------|
 D|------------------------------------------------------------5--4-5--7--9----|
 A|---5-5-5-5-5-5-5-5-5-5-5-5-5-5-5-5-5-5-5-5-5-5-5-5-5-5-5-5--5--4-5--7--9----|
 E|------------------------------------------------------------3--2-3--5--7----|

 


 | P.M................ ALL


 


 RIFF B AGAIN


 


 VERSE:


 SAME AS ABOVE


 


 BRIDGE 2:


 

 
 E|----------------------------------------------------------------------|
 B|----------------------------------------------------------------------|
 G|----------------------------------------------------------------------|
 D|---7---------------7---------------7---------------7------------------|
 A|-----10-10-9-9-7-7---10-10-9-9-7-7---10-10-9-9-7-7---10-10-9-9-7-7----|
 E|----------------------------------------------------------------------|

 


 | P.M........................................................... |


 


 BRIDGE 1:


 SAME AS ABOVE


 


 CHORUS:


 SAME AS ABOVE


 


 RIFF B AGAIN


 


 BEFORE SOLO:


 

 
 E|---------------------------------|
 B|---------------------------------|
 G|---------------------------------|
 D|---4---6--7--3----4---6--7--3----|
 A|---4---6--7--3----4---6--7--3----|
 E|---2---4--5--1----2---4--5--1----|

 


 


 GUITAR 1:


 

 
 E|-----------------------------------------------------------------------------------|
 B|-----------------------------------------------------------------------------------|
 G|-----------------------------------------------------------------------------------|
 D|-----------------------------------------------------------------------------------|
 A|-----------------------------------------------------------------------------------|
 E|---0-0-0--0--0-0-0--0-0-0-0--0-0-0--0-0-0-0--0-0-0--0-0-0-0--0-0-0--0-0-0-0--0-0-0-|

 


 | P.M.................. ALL


 


 

 
 E|-----------------------------------------------------------------------------------|
 B|-----------------------------------------------------------------------------------|
 G|-----------------------------------------------------------------------------------|
 D|-----------------------------------------------------------------------------------|
 A|-----------------------------------------------------------------------------------|
 E|---0-0-0-0--0-0-0--0-0-0-0--0-0-0--0-0-0-0--0-0-0--0-0-0-0--0-0-0--0-0-0-0--0-0-0--|

 


 ................... ALL


 


 

 
 E|-----------------------------------------------------------------------------------|
 B|-----------------------------------------------------------------------------------|
 G|-----------------------------------------------------------------------------------|
 D|-----------------------------------------------------------------------------------|
 A|-----------------------------------------------------------------------------------|
 E|---0-0-0-0--0-0-0--0-0-0-0--0-0-0--0-0-0-0--0-0-0--0-0-0-0--0-0-0--0-0-0-0--0-0-0--|

 


 ................... ALL


 


 

 
 E|-----------------------------------------------------------------------------------|
 B|-----------------------------------------------------------------------------------|
 G|-----------------------------------------------------------------------------------|
 D|-----------------------------------------------------------------------------------|
 A|-----------------------------------------------------------------------------------|
 E|---0-0-0-0--0-0-0--0-0-0-0--0-0-0--0-0-0-0--0-0-0--0-0-0-0--0-0-0--0-0-0-0--0-0-0--|

 


 ................... ALL


 


 

 
 E|-----------------------------------------------------|
 B|-----------------------------------------------------|
 G|-----------------------------------------------------|
 D|-----------------------------------------------------|
 A|-----------------------------------------------------|
 E|---0-0-0-0--0-0-0--0-0-0-0--0-0-0--0-0-0-0--0-0-0----|

 


 ............................................... |


 


 GUITAR 2: X 6 ( DURING GUITAR 1 )


 

 
 E|--------------|
 B|--------------|
 G|---------9----|
 D|-----9--------|
 A|---7---7------|
 E|--------------|

 


 


 FIRST SOLO: (2 GUITARS )


 [b] [b]  

 
 E|-------------14-16-16(17)-14------------------16-17-17(19)-16--------------------|
 B|---------14~-----------------14-----------17~-----------------17-----------------|
 G|------14------------------------14~----16------------------------16-----------14-|
 D|---16-------------------------------18------------------------------14~-16-18----|
 A|---------------------------------------------------------------------------------|
 E|-- F# ----------------------------- G# --------- A ----------------- E ----------|

 


 [b] [b]  

 
 E|-------------------------------------14-16-16(17)-14------------------16-17-17(19)
 B|-------b---------b---------------14~-----------------14-----------17~------------|
 G|---16-16(18)-16-16(18)-16-----14------------------------14~----16----------------|
 D|---------------------------16-------------------------------18-------------------|
 A|---------------------------------------------------------------------------------|
 E|----- C# --- B ----------- F# ----------------------------- G# ---------- A -----|
 E|---16----------------------------------------------------------------------------|
 B|------17-------------------------------------------------------------------------|
 G|---------16-----------14-16-14-18/16/14-18/16/14-18/16/14-18/16/14-16-20/18/16-20|
 D|------------14~-16-18------------------------------------------------------------|
 A|---------------------------------------------------------------------------------|
 E|----------- E ---------------- C# ----------------------------------- B ---------|
 E|----------------------------------|
 B|----------------------------------|
 G|---/18/16-20/18/16-20/18/16-21----|
 D|----------------------------------|
 A|----------------------------------|
 E|----------------------------------|

 


 


 SECOND SOLO:


 

 
 E|---------------------------------------------------------------------------------|
 B|---------------------------------------------------------------------------------|
 G|------------16-14-----------------14----16-14~----14-16~-14-------------14~------|
 D|---14-16-17-------17-16-14-16-17~----14--------17-----------17/16-17-16-----14~--|
 A|---------------------------------------------------------------------------------|
 E|-- E --------- A ------ E F# G ------ B A -------- B --------------- A -- E --|
 E|----------------------------------|
 B|----------------------------------|
 G|-------------14-16~-14----14~/----|
 D|---14-16-17~-----------17---------|
 A|----------------------------------|
 E|-- E F# G ---- B ------- A ------|

 


 


 THEN THERE IS A THIRD SOLO THAT I DONT KNOW ,ANYWAY, THE RYTHM GUITAR GOES LIKE


 RIFF B X 2


 


 BRIDGE:


 

 
 E|--------------------------------------|
 B|--------------------------------------|
 G|-------5---7-----------5---7-----7----|
 D|---7---5---7---5---7---5---7---5-7----|
 A|---7---3---5---5---7---3---5---5-5----|
 E|---5-----------3---5-----------3------|

 


 


 BRIDGE 2 AGAIN


 


 CHORUS:


 

 
 E|----------------------------------------------------------------------------|
 B|----------------------------------------------------------------------------|
 G|----------------------------------------------------------------------------|
 D|----------------------------------------------------------------------------|
 A|---7-7-7-7-7-7-7-7-7-7-7-7-7-7-7-7-7-7-7-7-7-7-7-7-7-7-7-7-7-7-7-7-5-5-5-5--|
 E|----------------------------------------------------------------------------|

 


 | P.M................. ALL


 


 

 
 E|-------------------------------------------------------------------------------|
 B|-------------------------------------------------------------------------------|
 G|-------------------------------------------------------------------------------|
 D|------------------------------------------------------------5--4-5--7--9--2----|
 A|---5-5-5-5-5-5-5-5-5-5-5-5-5-5-5-5-5-5-5-5-5-5-5-5-5-5-5-5--5--4-5--7--9--2----|
 E|------------------------------------------------------------3--2-3--5--7--0----|


Important: The song above is NOT stored on the Chordie server. The original song is hosted at www.xguitar.com. Chordie works as a search engine and provides on-the-fly formatting. Chordie does not index songs against artists'/composers' will. To remove this song please click here.

This song is displayed as text-only. Transposing and tuning is only available for chordpro-songs.
Rate #3 of 3 versions

Jango Player

Login - add to songbook

SHARE PAGE  




You need to log in to post comments