Guitar Tabs, Chords and Lyrics
Major upgrade!! After one year development the new version of Chordie is now online! Please give feedback.


Where the Rain Grows  Helloween

Helloween - Where The Rain Grows
Submitted By: Fellor
EMail: webmaster@daniel-feller.com
4 Times
[Em] [C] [DM]  
 
 e|------------------------|-----------------------|
 B|------------------------|-----------------------|
 G|-9------9---------------|-5-----7---------------|
 D|-9------9---------------|-5-----7---------------|
 A|-7------7---7-7-9-9-8-8-|-3-----5---5-5-9-9-5-5-|
 E|-0------0---------------|-0-----0---------------|

[Em] [DM]  
 
 e|-------------|----------------|
 B|-------------|----------------|
 G|-9------9----|-7--------------|
 D|-9------9----|-7--------------|
 A|-7------7----|-5--------------|
 E|-0------0----|-0--------------|

Guitar 1
 
 e|-8-0-7-0--------------------------|-10-0-8-0---------8-0-7-0----------|
 B|---------5-0-7-0-10-0-8-0-7-0-8-0-|----------7-0-8-0---------8-0-10-0-|
 G|----------------------------------|-----------------------------------|
 D|----------------------------------|-----------------------------------|
 A|----------------------------------|-----------------------------------|
 E|----------------------------------|-----------------------------------|

| | |
| Guitar 2 | |
| | |
 
 e|----------------------------------|-----------------------------------|
 B|----------------------------------|-----------------------------------|
 G|-9--------------------------------|-5----------------7----------------|
 D|-9--------------------------------|-5----------------7----------------|
 A|-7--------------------------------|-3----------------5----------------|
 E|-0--------------------------------|-0----------------0----------------|

Lyric enter
4 Times
[Em] [C] [DM]  
 
 e|--------------------------|--------------------------|
 B|--------------------------|--------------------------|
 G|-9---------9--------------|-5---------7--------------|
 D|-9---------9--------------|-5---------7--------------|
 A|-7-7-7-7-7-7--7-7-9-9-8-8-|-3-3-3-3-3-5--5-5-9-9-5-5-|
 E|-0---------0-------- -----|-0---------0--------------|

Pre-Chorus
2 Times
 
 e|-----------|-------------------|--------------|-----------------------|
 B|-----------|-------------------|--------------|-----------------------|
 G|--4--------|--9----------------|--5-----------|---7----5----4----2----|
 D|--4--------|--9----------------|--5-----------|---7----5----4----2----|
 A|--2--------|--7777777777777777-|--3-----------|---5----3----2----0----|
 E|--0--------|--0----------------|--0-----------|---0----0----0----0----|

CHORUS
[G] [DM] [Em] [CM]  
 
 e|------------|-------------|--------------|-------------|
 B|------------|-------------|--------------|-------------|
 G|------------|------7------|------9-------|------5------|
 D|----5-------|------7------|------9-------|------5------|
 A|----5-------|------5------|------7-------|------3------|
 E|----3-------|------0------|------0-------|------0------|

[G] [DM] [Em] [CM] [DM]  
 
 e|------------|-------------|--------------|-------------|
 B|------------|-------------|--------------|-------------|
 G|------------|------7------|------9-------|----5----7---|
 D|----5-------|------7------|------9-------|----5----7---|
 A|----5-------|------5------|------7-------|----3----5---|
 E|----3-------|------0------|------0-------|----0----0---|

Guitar 1
 
 e|-8-0-7-0--------------------------|-10-0-8-0---------8-0-7-0----------|
 B|---------5-0-7-0-10-0-8-0-7-0-8-0-|----------7-0-8-0---------8-0-10-0-|
 G|----------------------------------|-----------------------------------|
 D|----------------------------------|-----------------------------------|
 A|----------------------------------|-----------------------------------|
 E|----------------------------------|-----------------------------------|

| | |
| Guitar 2 | |
| | |
 
 e|----------------------------------|-----------------------------------|
 B|----------------------------------|-----------------------------------|
 G|-9--------------------------------|-5----------------7----------------|
 D|-9--------------------------------|-5----------------7----------------|
 A|-7--------------------------------|-3----------------5----------------|
 E|-0--------------------------------|-0----------------0----------------|

Lyric enter
4 Times
[Em] [C] [DM]  
 
 e|--------------------------|--------------------------|
 B|--------------------------|--------------------------|
 G|-9---------9--------------|-5---------7--------------|
 D|-9---------9--------------|-5---------7--------------|
 A|-7-7-7-7-7-7--7-7-9-9-8-8-|-3-3-3-3-3-5--5-5-9-9-5-5-|
 E|-0---------0-------- -----|-0---------0--------------|

Pre-Chorus
2 Times
 
 e|-----------|-------------------|--------------|-----------------------|
 B|-----------|-------------------|--------------|-----------------------|
 G|--4--------|--9----------------|--5-----------|---7----5----4----2----|
 D|--4--------|--9----------------|--5-----------|---7----5----4----2----|
 A|--2--------|--7777777777777777-|--3-----------|---5----3----2----0----|
 E|--0--------|--0----------------|--0-----------|---0----0----0----0----|

CHORUS
[G] [DM] [Em] [CM]  
 
 e|------------|-------------|--------------|-------------|
 B|------------|-------------|--------------|-------------|
 G|------------|------7------|------9-------|------5------|
 D|----5-------|------7------|------9-------|------5------|
 A|----5-------|------5------|------7-------|------3------|
 E|----3-------|------0------|------0-------|------0------|

[G] [DM] [Em] [CM] [DM]  
 
 e|------------|-------------|--------------|-------------|
 B|------------|-------------|--------------|-------------|
 G|------------|------7------|------9-------|----5----7---|
 D|----5-------|------7------|------9-------|----5----7---|
 A|----5-------|------5------|------7-------|----3----5---|
 E|----3-------|------0------|------0-------|----0----0---|

2 times 2 times
 
 e|-------------------|-----------------|
 B|-------------------|-----------------|
 G|-------------------|-----------------|
 D|----------9-7------|---------7-------|
 A|-7-9-10-7-----10-9-|---7-9----10-9-7-|
 E|-------------------|-10----10--------|

| | |
| | |
 
 e|-------------------|-----------------|
 B|-------------------|-----------------|
 G|-9-----------------|-7---------------|
 D|-9-----------------|-7---------------|
 A|-7-----------------|-5---------------|
 E|-0-----------------|-0---------------|

2 times
 
 e|--------------------|--------------------------------------|
 B|--------------------|--------------------------------------|
 G|-----------7--------|-------------------7------------------|
 D|----7-9------10-9-7-|----------9-7--------10-9-7-10-9-7----|
 A|-10-----10----------|-7-9-10-7-----10-9-----------------10-|
 E|--------------------|--------------------------------------|

| | |
| | |
 
 e|--------------------|--------------------------------------|
 B|--------------------|--------------------------------------|
 G|--------------------|-5------------------------------------|
 D|-5------------------|-5-----------------7------------------|
 A|-5------------------|-3-----------------5------------------|
 E|-3------------------|-0-----------------0------------------|

Play all this bridgeshit twice than play the next bridge.
It goes like this I think.
 
 e|--------------------------------------|------------------------------------|
 B|-15-0-0-14-0-0-15-0-12-0-15-14-0-12-0-|-15-0-0-14-0-0-15-0-12-0-17-15-14-0-|
 G|--------------------------------------|------------------------------------|
 D|--------------------------------------|------------------------------------|
 A|--------------------------------------|------------------------------------|
 E|--------------------------------------|------------------------------------|
 e|--------------------------------------|
 B|-15-0-0-14-0-0-15-0-12-0-19-0-17-0-15-|
 G|--------------------------------------|
 D|--------------------------------------|
 A|--------------------------------------|
 E|--------------------------------------|
 e|-------------------------------------------------|
 B|-15-14-12----------------------------------12-14-|
 G|----------14-12-11----------------11-12-14-------|
 D|-------------------14-12-11-12-14----------------|
 A|-------------------------------------------------|
 E|-------------------------------------------------|

End of bridge 2
CHORUS 2
 
 e|-------------|-------------|------------|------------|
 B|-------------|-------------|------------|------------|
 G|-9-----------|-7-----------|------------|-7----------|
 D|-9-----------|-7-----------|-5----------|-7----------|
 A|-7-----------|-5-----------|-5----------|-5----------|
 E|-0-----------|-0-----------|-3----------|-0----------|
 e|-------------|-------------|------------|------------|
 B|-------------|-------------|------------|------------|
 G|-9-----------|-7-----------|------------|-7----------|
 D|-9-----------|-7-----------|-5----------|-7----------|
 A|-7-----------|-5-----------|-5----------|-5----------|
 E|-0-----------|-0-----------|-3----------|-0----------|

CHORUS
[G] [DM] [Em] [CM]  
 
 e|------------|-------------|--------------|-------------|
 B|------------|-------------|--------------|-------------|
 G|------------|------7------|------9-------|------5------|
 D|----5-------|------7------|------9-------|------5------|
 A|----5-------|------5------|------7-------|------3------|
 E|----3-------|------0------|------0-------|------0------|

[G] [DM] [Em] [CM] [DM]  
 
 e|------------|-------------|--------------|-------------|
 B|------------|-------------|--------------|-------------|
 G|------------|------7------|------9-------|----5----7---|
 D|----5-------|------7------|------9-------|----5----7---|
 A|----5-------|------5------|------7-------|----3----5---|
 E|----3-------|------0------|------0-------|----0----0---|

Guitar 1
 
 e|-8-0-7-0--------------------------|-10-0-8-0---------8-0-7-0----------|
 B|---------5-0-7-0-10-0-8-0-7-0-8-0-|----------7-0-8-0---------8-0-10-0-|
 G|----------------------------------|-----------------------------------|
 D|----------------------------------|-----------------------------------|
 A|----------------------------------|-----------------------------------|
 E|----------------------------------|-----------------------------------|

| | |
| Guitar 2 | |
| | |
 
 e|----------------------------------|-----------------------------------|
 B|----------------------------------|-----------------------------------|
 G|-9--------------------------------|-5----------------7----------------|
 D|-9--------------------------------|-5----------------7----------------|
 A|-7--------------------------------|-3----------------5----------------|
 E|-0--------------------------------|-0----------------0----------------|


Important: The song above is NOT stored on the Chordie server. The original song is hosted at www.xguitar.com. Chordie works as a search engine and provides on-the-fly formatting. Chordie does not index songs against artists'/composers' will. To remove this song please click here.

Text color:
Chord color:
Chord grids: 
Font size:    
Page size: 

C Cm Dm Em G
Rate #4 of 7 versions

Login - add to songbook

SHARE PAGE  




You need to log in to post comments