Guitar Tabs, Chords and Lyrics
Major upgrade!! After one year development the new version of Chordie is now online! Please give feedback.


Just a Little Sign  Helloween

JUST A LITTLE SIGN by Helloween
==================
written by Andi Deris
from the "Rabbit Don't Come Easy" album (2003)
tabbed by Piguinho (from Brazil)
[Riff 1] 
[G5] [D5] [F#5]  
 
 e|-----------------------------------------------------------------------|
 B|-----------------------------------------------------------------------|
 G|-------------------------------------7----------------------11---------|
 D|---5---------------------------------7----------------------11---------|
 A|---5---------------------------------5-----------------------9---------|
 E|---3-------------------------------------------------------------------|

|
 
 e|-----------------------------------------------------------------------|
 B|-----------------------------------------------------------------------|
 G|-----------------------------------------------------------------------|
 D|-----------------------------------------------------------------------|
 A|-------------------------------------5-5-5-5-5-5-5-5-5-5-5-5-----------|
 E|---3-3-3-3-3-3-3-3-3-3-3-3-3-3-3-3---------------------------2-2-2-2---|

[E5] [F#5] [G5] [A5]  
 
 e|-----------------------------------------------------------------------|
 B|-----------------------------------------------------------------------|
 G|---9-------------------------------------------------------------------|
 D|---9--------------------------------11-----------12----------14--------|
 A|---7---------------------------------9-----------10----------12--------|
 E|-----------------------------------------------------------------------|

|
 
 e|-----------------------------------------------------------------------|
 B|-----------------------------------------------------------------------|
 G|-----------------------------------------------------------------------|
 D|-----------------------------------------------------------------------|
 A|---7-7-7-7-7-7-7-7-7-7-7-7-7-7-7-7-------------------------------------|
 E|-------------------------------------2-2-2-2-2-2-3-3-3-3-3-3-5-5-5-5---|

[C5] [D5]  
 
 e|---------------------------------------------------------------------------------------|
 B|---------------------------------------------------------------------------------------|
 G|---5---------------------------------------------------7-------------------------------|
 D|---5---------------------------------------------------7-------------------------------|
 A|---3-----------------------------------10--9--7--5-----5-------5--5--5--5--5--5--------|
 E|---------------------------------------------------------------------------------------|

|
 
 e|---------------------------------------------------------------------------------------|
 B|---------------------------------------------------------------------------------------|
 G|---------------------------------------------------------------------------------------|
 D|---------------------------------------------------------------------------------------|
 A|---3-3-3-3-3-3-3-3-3-3-3-3-3-3-3-3-----10--9--7--5-----9-9-9-9-9-9-10-10-10-10-10-10---|
 E|---------------------------------------------------------------------------------------|
 e|--------------------------------------------------------|
 B|--------------------------------------------------------|
 G|--------------------------------------------------------|
 D|--------------------------------------------------------|
 A|---5-5-5-5-5-5-5-5-5-5-5-5-5-5-5-5-5-5-5-5-5------------|
 E|--------------------------------------------------------|

|
 
 e|--------------------------------------------------------|
 B|--------------------------------------------------------|
 G|--------------------------------------------9-9-9-9-9---|
 D|----------------------------9-9-10-10-12-12-------------|
 A|---12-12-12-12--10-10-12-12-----------------------------|
 E|--------------------------------------------------------|

[Riff 2] 
 
 e|---------------------------------------------------------------------------|
 B|---------------------------------------------------------------------------|
 G|---10\9--------------14\10--------10-----9---------------------------------|
 D|---10\9--------------14\10--------10-----9------------7--9--10--9---7--9---|
 A|----8\7--------------12\-8---------8-----7------------5--7---8--7---5--7---|
 E|---------0--0--0--0---------0--0------0-----0--0--0---5--7---8--7---5--7---|

[Riff 3] 
 
 e|----------------------------------------------------------------------|
 B|----------------------------------------------------------------------|
 G|-------------------14\10--------10-----9------------------------------|
 D|---9---------------14\10--------10-----9------------7--9--10--9---7---|
 A|---7---------------12\-8---------8-----7------------5--7---8--7---5---|
 E|---7---0--0--0--0---------0--0------0-----0--0--0---5--7---8--7---5---|

[Riff 4] 
 
 e|-----------------------------------------------------------------------|
 B|-----------------------------------------------------------------------|
 G|-----------------------------------------------------------------------|
 D|-----------5-5-5-5---------5-5-5-5-----------5-5-5-5---------5-5-5-5---|
 A|---7-7-7-7---------7-7-7-7---------------------------------------------|
 E|-------------------------------------8-8-8-8---------8-8-8-8-----------|

[Riff 5] 
 
 e|------------------------|
 B|------------------------|
 G|------------------------|
 D|------------------------|
 A|---2--2---2--2---2--2---|
 E|---0--0---0--0---0--0---|

[Riff 6] 
 
 e|-------------------------------------------------------|
 B|---8--8--8--8--12--8--8--8--10--8--8--8--12--8--8--8---|
 G|-------------------------------------------------------|
 D|-------------------------------------------------------|
 A|-------------------------------------------------------|
 E|-------------------------------------------------------|

|
 
 e|-------------------------------------------------------|
 B|---5--5--5--5--8---5--5--5--7---5--5--5--8---5--5--5---|
 G|-------------------------------------------------------|
 D|-------------------------------------------------------|
 A|-------------------------------------------------------|
 E|-------------------------------------------------------|

[Riff 7] 
 
 e|--------------------------------------------|
 B|---12p0h10p0h12p0h8p0h13p0h12p0h10p0h12p0---|
 G|--------------------------------------------|
 D|--------------------------------------------|
 A|--------------------------------------------|
 E|--------------------------------------------|

|
 
 e|--------------------------------------------|
 B|---8p0h7p0h8p0h5p0h10p0h8p0h7p0h8p0---------|
 G|--------------------------------------------|
 D|--------------------------------------------|
 A|--------------------------------------------|
 E|--------------------------------------------|

[Riff 8] 
 
 e|---------------------------------------------------------------------|
 B|---12p8p0--12p8p0--12p8p0--12p8p0---10p7p0--10p7p0--10p7p0--10p7p0---|
 G|---------------------------------------------------------------------|
 D|---------------------------------------------------------------------|
 A|---------------------------------------------------------------------|
 E|---------------------------------------------------------------------|

|
 
 e|---------------------------------------------------------------------|
 B|---8p5p0---8p5p0---8p5p0---8p5p0----7p5p0---7p5p0---7p5p0---7p5p0----|
 G|---------------------------------------------------------------------|
 D|---------------------------------------------------------------------|
 A|---------------------------------------------------------------------|
 E|---------------------------------------------------------------------|

[Riff 9] 
 
 e|----------------------------------------------------------------------------|
 B|---13p10p0--13p10p0--13p10p0--13p10p0--13p10p0--13p10p0--13p10p0--13p10p0---|
 G|----------------------------------------------------------------------------|
 D|----------------------------------------------------------------------------|
 A|----------------------------------------------------------------------------|
 E|----------------------------------------------------------------------------|

|
 
 e|----------------------------------------------------------------------------|
 B|---10p7p0---10p7p0---10p7p0---10p7p0---10p7p0---10p7p0---10p7p0---10p7p0----|
 G|----------------------------------------------------------------------------|
 D|----------------------------------------------------------------------------|
 A|----------------------------------------------------------------------------|
 E|----------------------------------------------------------------------------|

[Riff 10] 
 
 e|-------------------------------------------------------------------------|
 B|---12p8p0--12p8p0--12p8p0--12p8p0---17p12p0--17p12p0--13p10p0--13p10p0---|
 G|-------------------------------------------------------------------------|
 D|-------------------------------------------------------------------------|
 A|-------------------------------------------------------------------------|
 E|-------------------------------------------------------------------------|

|
 
 e|-------------------------------------------------------------------------|
 B|---8p5p0---8p5p0---8p5p0---8p5p0----12p8p0---12p8p0----10p7p0---10p7p0---|
 G|-------------------------------------------------------------------------|
 D|-------------------------------------------------------------------------|
 A|-------------------------------------------------------------------------|
 E|-------------------------------------------------------------------------|

[Riff 11] 
 
 e|-----------------------------------------------------------------------------------|
 B|---15p12p0--15p12p0--15p12p0--15p12p0--15p12p0--15p12p0--15p12p0--15p12p0----------|
 G|-----------------------------------------------------------------------------------|
 D|-----------------------------------------------------------------------------------|
 A|-----------------------------------------------------------------------------------|
 E|-----------------------------------------------------------------------------------|

|
 
 e|-----------------------------------------------------------------------------------|
 B|---12p8p0---12p8p0---12p8p0---12p8p0---12p8p0---12p8p0---12p8p0---12p8p0-----------|
 G|-----------------------------------------------------------------------------------|
 D|-----------------------------------------------------------------------------2-----|
 A|-----------------------------------------------------------------------------2-----|
 E|-----------------------------------------------------------------------------0-----|

[Fill 1] 
 
 e|--------------------------------|
 B|---15---15-------------15b17~---|
 G|-------------16---16------------|
 D|--------------------------------|
 A|--------------------------------|
 E|--------------------------------|

Song:
[Riff 1] 1x
[Riff 2] 1x
[Riff 3] 3x
[Riff 4] 4x with lyrics:
Here I stand alone again
Hundreds all around (hundreds all around)
Didn't come here to make a friend
D5 w/ [Fill 1]
But to listen to the sound (listen to the sound)
[Riff 4] 4x with lyrics:
Something's growing in my plans
As she looks into my eyes
Now I smile the whole damn night
D5 w/ [Fill 1]
But my dream acts cold as ice
[Riff 1] 2x with lyrics:
It's time for just a little sign
It's time, make believe the world is mine
It's time for just a little sign
It's time, make believe the world is mine
Just a little sign
[Riff 3] 2x
[Riff 4] 4x with lyrics:
Shouldn't I dare to talk to her
But what is it I would say (is it I would say)
Surely I'd look like a clown
D5 w/ [Fill 1]
For my smiles freeze on my face
[Riff 1] 2x with lyrics:
It's time for just a little sign
It's time, make believe the world is mine
It's time for just a little sign
It's time, make believe the world is mine
Just a little sign
[Riff 5] 11x
[Riff 6] 7x
[Riff 7] 1x
[Riff 8] 2x
[Riff 9] 1x
[Riff 10] 1x
[Riff 8] 2x
[Riff 9] 1x
[Riff 11] 1x
[Solo]:
 
 e|------------------------------------------------------------------------------------|
 B|---15b17--15b17--15b17--15b17------------15br--12--10--0--8--0----------------------|
 G|-------------------------------14b16~----------------------------14b16r14--12-------|
 D|-------------------------------------------------------------------------------14---|
 A|------------------------------------------------------------------------------------|
 E|------------------------------------------------------------------------------------|

[Riff 1] 2x
It's time for just a little sign
It's time, make believe the world is mine
[Riff 1] 2x with lyrics:
It's time for just a little sign
It's time, make believe the world is mine
It's time for just a little sign
It's time, make believe the world is mine
[Riff 3] 2x with lyrics:
Just a little sign
Just a little sign
[Outro] 
 
 e|----------------------------------------------------------------------|
 B|----------------------------------------------------------------------|
 G|----------------------------------------------------------------------|
 D|----------------------------------------------------------------------|
 A|---2--2---2--2---2--2---2--2---2--2-------2--2---2--2---2--2---2--2---|
 E|---0--0---0--0---0--0---0--0---0--0-------0--0---0--0---0--0---0--0---|


Important: The song above is NOT stored on the Chordie server. The original song is hosted at www.xguitar.com. Chordie works as a search engine and provides on-the-fly formatting. Chordie does not index songs against artists'/composers' will. To remove this song please click here.

Text color:
Chord color:
Chord grids: 
Font size:    
Page size: 

A5 C5 D5 E5 F#5 G5
Rate #0 of 7 versions

Login - add to songbook

SHARE PAGE  




You need to log in to post comments