Guitar Tabs, Chords and Lyrics
Major upgrade!! After one year development the new version of Chordie is now online! Please give feedback.


Our Diabolikal Rapture  HIM

 
 |--------------------|
 |--------------------|
 |--------------------|
 |--------------------| * 3
 |--------------------|
 |-8-6-6-8-6-6-3h5-3~-|
 |--------------------|
 |--------------------|
 |--------------------|
 |-------------5h7-5~-|
 |--------------------|
 |-8-6-6-8-6-6--------|

RIFFI
 
 |---------------------------|
 |---------------------------|
 |---------------------------|
 |-5-5-5-5-5-5-5-5-5-5-5-5-5-|

In our diabolikal rapture we live on and on
And death keeps knocking at our door
 
 |-----------------------------------------------------|
 |-----------------------------------------------------|
 |-----------------------------------------------------|
 |-----------------------------------------------------|
 |-----------------------------------------------------|
 |-8-6-6-8-6-6-----------------5-3-3-5-3-3-------------|

So we open the door and we die a bit more
We're in love with with death and we die on and on
[Dm]Won't you close our eyes
 
 |-----------------------------------------------------|
 |-----------------------------------------------------|
 |-----------------------------------------------------|
 |-----------------------------------------------------|
 |-----------------------------------------------------|
 |-8-6-6-8-6-6------------------5-3-3-5-3-3------------|

[Dm]We'll be by your [F]side
RIFFI
 
 |---------------------------|
 |---------------------------|
 |---------------------------|
 |-5-5-5-5-5-5-5-5-5-5-5-5-5-|

In your heavenly rapture we die on and on
And you keep waiting at our door
 
 |-----------------------------------------------------|
 |-----------------------------------------------------|
 |-----------------------------------------------------|
 |-----------------------------------------------------|
 |-----------------------------------------------------|
 |-8-6-6-8-6-6------------------5-3-3-5-3-3------------|

Yes - we open the door, let us die a bit more
Because we're in love with you and we die on and on
[Dm]Won't you close our eyes, eyes
 
 |-----------------------------------------------------|
 |-----------------------------------------------------|
 |-----------------------------------------------------|
 |-----------------------------------------------------|
 |-----------------------------------------------------|
 |-8-6-6-8-6-6------------------5-3-3-5-3-3------------|

[Dm]We'll be by your [F]side
[A#5]Your [G#5]love is the [C#5]only [D#5]thing I
live for in this world
Oh how I wait for the day
Your heart burns
In these heavenly flames I've
Already scorched in F5
I just want you to know I'll always be waiting
[D5]Your [C5]love is the [F5]only [G5]thing I
 
 |--------|
 |--------|
 |--------|
 |--------|
 |--------|

D5 C5 F5 G5 |-5~---1-|
live for in this world
Oh how I wait for the day your heart burns
In these heavenly flames I've already scorched in
I just want you to know I'll always be waiting
well thats what ive been told...i dont play guitar so wahhh haaa

Important: The song above is NOT stored on the Chordie server. The original song is hosted at www.xguitar.com. Chordie works as a search engine and provides on-the-fly formatting. Chordie does not index songs against artists'/composers' will. To remove this song please click here.

Text color:
Chord color:
Chord grids: 
Font size:    
Page size: 

A#5 C#5 C5 D#5 D5 Dm F F5 G#5 G5
Rate #1 of 2 versions

Login - add to songbook

SHARE PAGE  



You need to log in to post comments