Guitar Tabs, Chords and Lyrics
Major upgrade!! After one year development the new version of Chordie is now online! Please give feedback.


Wicked Game   HIM

 
 |--------------------------------------------------------------|
 |--------------------------------------------------------------|
 |----4-4-4-4-4-4-4--2-2-2-2-2-2-2--1-1-1-1-1-1-1-1-1-1-1-1-1-1-|
 |----4-4-4-4-4-4-4--2-2-2-2-2-2-2--2-2-2-2-2-2-2-2-2-2-2-2-2-2-|
 |----2-2-2-2-2-2-2--0-0-0-0-0-0-0--2-2-2-2-2-2-2-2-2-2-2-2-2-2-|
 |--------------------------------------------------------------|

 


 p.m ........... ........... ........... ...... ...


 


 [Guitar 2] 


 

 
 |--------------------------------------------------------------|
 |--------------------------------------------------------------|
 |-------------------------------------------------2---1--------|
 |---------------------------------------------2h4---2----------|
 |--------------------------------------------------------------|
 |--------------------------------------------------------------|

 


 


 Verse (The same as the main riff, exept all chords are palm-muted)


 


 [Guitar 1] 


 

 
 |--------------------------------------------------------------|
 |--------------------------------------------------------------|
 |----4-4-4-4-4-4-4--2-2-2-2-2-2-2--1-1-1-1-1-1-1-1-1-1-1-1-1-1-|
 |----4-4-4-4-4-4-4--2-2-2-2-2-2-2--2-2-2-2-2-2-2-2-2-2-2-2-2-2-| X3
 |----2-2-2-2-2-2-2--0-0-0-0-0-0-0--2-2-2-2-2-2-2-2-2-2-2-2-2-2-|
 |--------------------------------------------------------------|

 


 p.m ...........................................................


 


 [Guitar 2] 


 

 
 |--------------------------------------------------------------|
 |--------------------------------------------------------------|
 |-------------------------------------------------2---1--------|
 |---------------------------------------------2h4---2----------| X3
 |--------------------------------------------------------------|
 |--------------------------------------------------------------|

 


 


 [Guitar 1] 


 

 
 |--------------------------------------------------------------|
 |--------------------------------------------------------------|
 |----4-4-4-4-4-4-4--2-2-2-2-2-2-2--1-1-1-1-1-1-1-1-1-1-1-1-1-1-|
 |----4-4-4-4-4-4-4--2-2-2-2-2-2-2--2-2-2-2-2-2-2-2-2-2-2-2-2-2-| X2
 |----2-2-2-2-2-2-2--0-0-0-0-0-0-0--2-2-2-2-2-2-2-2-2-2-2-2-2-2-|
 |--------------------------------------------------------------|

 


 p.m ............ ............ ............ ....... ...


 


 [Guitar 2] 


 

 
 |--------------------------------------------------------------|
 |--------------------------------------------------------------|
 |-------------------------------------------------2---1--------|
 |---------------------------------------------2h4---2----------| X2
 |--------------------------------------------------------------|
 |--------------------------------------------------------------|

 


 


 Chorus:


 


 [Guitar 1] 


 

 
 |--------------------------------------------------------------|
 |--------------------------------------------------------------|
 |----4-4-4-4-4-4-4--2-2-2-2-2-2-2--1-1-1-1-1-1-1-1-1-1-1-1-1-1-|
 |----4-4-4-4-4-4-4--2-2-2-2-2-2-2--2-2-2-2-2-2-2-2-2-2-2-2-2-2-| X3
 |----2-2-2-2-2-2-2--0-0-0-0-0-0-0--2-2-2-2-2-2-2-2-2-2-2-2-2-2-|
 |--------------------------------------------------------------|

 


 p.m ............ ............ ............. .... ......


 


 [Guitar 2] 


 

 
 |-------------------------------------------------------------|
 |---7--------------------------------7------------------------|
 |-7----9-7-6-4---2-1---1-2-4-~-----7--9-7-6-4---2-1---1-2-4-~-| X3
 |-------------------------------------------------------------|
 |-------------------------------------------------------------|
 |-------------------------------------------------------------|


Important: The song above is NOT stored on the Chordie server. The original song is hosted at www.xguitar.com. Chordie works as a search engine and provides on-the-fly formatting. Chordie does not index songs against artists'/composers' will. To remove this song please click here.

This song is displayed as text-only. Transposing and tuning is only available for chordpro-songs.
Rate #3 of 6 versions

Jango Player

Login - add to songbook

SHARE PAGE  




You need to log in to post comments