Guitar Tabs, Chords and Lyrics
Major upgrade!! After one year development the new version of Chordie is now online! Please give feedback.


Outsmarted  The Hives

The Hives - Outsmarted
Submitted By: Chris
EMail: cwsmith@together.net
Album:Veni Vidi Viscious (2000)
Track:5
Guitars:Nicholas Arson and Vigilante Carlstroem
*Note* On an acoustic guitar it's best to play the C5s
with the root note on the A string so that bending is easier
since it should be on the b string. On electric just
play it how I've written it here.
Gtr. I-Clean (middle)
Gtr. II-Dirty (treble)
Legend:
()-ghost note
x-mute
b-bend
/-slide up
r-release bend
~-let ring
()-harmonics
0:01
Gtr. I & II
Intro/Chorus:
[C]  
 
 e----------------------------------------------------|
 b----------------------------------8br-------8--br---|
 g---9--9--9--9--9--9--9--9---9--(x)8br-9--(x)--------|
 D---10-10-10-10-10-10-10-10--10-(x)----10-(x)--------|
 A---10-10-10-10-10-10-10-10--10-(x)----10-(x)--------|
 E---8--8--8--8--8--8--8--8---8--(x)----8--(x)--------|

^ ^
(continued)[(1/4)] [(1/2)]
[G#] [G]  
 
 e-------------------------------------|
 b-------------------------------------|
 g---5-5-5-5-5-5-5-5-4-4-4-4-4-4-4-4---|
 D---6-6-6-6-6-6-6-6-5-5-5-5-5-5-5-5---|
 A---6-6-6-6-6-6-6-6-5-5-5-5-5-5-5-5---|
 E---4-4-4-4-4-4-4-4-3-3-3-3-3-3-3-3---|

0:21
Gtr. I & II
Verse:
[C] [F] [C]  
 
 e----------------------------------------------------------|
 b----------------------1010101010101010--------------------|
 g---9-9-9-9-9-9-9-9-9--1010101010101010-9-9-9-9-9-9-9-9----|
 D---101010101010101010-1010101010101010-1010101010101010---|
 A---101010101010101010-8-8-8-8-8-8-8-8--1010101010101010---|
 E---8-8-8-8-8-8-8-8-8-------------------8-8-8-8-8-8-8-8----|

(continued)
[F] [G#] [G] [C]  
 
 e----------------------------------------------------------------------|
 b---1010101010101010---------------------------------5-5-5-5-5-5-5-5---|
 g---1010101010101010-5-5-5-5-5-5-5-5-4-4-4-4-4-4-4-4-5-5-5-5-5-5-5-5---|
 D---1010101010101010-6-6-6-6-6-6-6-6-5-5-5-5-5-5-5-5-5-5-5-5-5-5-5-5---|
 A---8-8-8-8-8-8-8-8--6-6-6-6-6-6-6-6-5-5-5-5-5-5-5-5-3-3-3-3-3-3-3-3---|
 E--------------------4-4-4-4-4-4-4-4-3-3-3-3-3-3-3-3-------------------|

0:30
Pre-Chorus:
Gtr. I
[C]  
 
 e-----------------------------------------------------------|
 b-----------------------------------------------------------|
 g---9~~~~~~~~~~~~~~~~~~~~~~~~~~~~~~~~~~~~~~~(x)8br-(x)8br---|
 D---10~~~~~~~~~~~~~~~(feedback &)~~~~~~~~~~~(x)----(x)------|
 A---10~~~~~~~~~~~~~~~(heavy fuzz)~~~~~~~~~~~(x)----(x)------|
 E---8~~~~~~~~~~~~~~~~~~~~~~~~~~~~~~~~~~~~~~~(x)----(x)------|

^ ^
[(1/4)] [(1/4)] 
(continued)
Gtr. I & II
[G#] [G]  
 
 e-------------------------------------|
 b-------------------------------------|
 g---5-5-5-5-5-5-5-5-4-4-4-4-4-4-4-4---|
 D---6-6-6-6-6-6-6-6-5-5-5-5-5-5-5-5---|
 A---6-6-6-6-6-6-6-6-5-5-5-5-5-5-5-5---|
 E---4-4-4-4-4-4-4-4-3-3-3-3-3-3-3-3---|

1:30
Interlude:
Gtr. I
[F]  
 
 e--------|
 b---9----|
 g---10---|
 D---10---|
 A---8----|
 E--------|

2:07
Outro:
Gtr. II
 
 e-----------------------------------------------------|
 b-----------------------------------------------------|
 g-----------------------------------------------------|
 D---[12]~~~~~~~~~~~~~~~~~~~~~~~~~~~~~~~~~~~~~~~~~~~---|
 A---[12]~~~~~~~~~~~~~~~~~(heavy fuzz)~~~~~~~~~~~~~~---|
 E---[12]~~~~~~~~~~~~~~~~~~~~~~~~~~~~~~~~~~~~~~~~~~~---|

Gtr. I
 
 e-----------------------------------------------------|
 b---(1)///////////////////////////////////////--------|
 g---(1)///////////////////////////////////////--------|
 D-----------------------------------------------------|
 A-----------------------------------------------------|
 E-----------------------------------------------------|

Guitar II then fades out with heavy fuzz...
Order:
Intro x4 *(first C5 8th notes at 0:01 only first time)
Verse x1
Pre-Chorus x1 **(Gtr. II holds fuzz)
Chorus x4*
Verse x1
Pre-Chorus x1 **
Chorus x4
Interlude x4 **
Chorus x4*
Outro x1
Okay, hope that's not to confusing. This isn't too difficult
to play once you get the bends down correctly. Good luck! Phew!

Important: The song above is NOT stored on the Chordie server. The original song is hosted at www.xguitar.com. Chordie works as a search engine and provides on-the-fly formatting. Chordie does not index songs against artists'/composers' will. To remove this song please click here.

Text color:
Chord color:
Chord grids: 
Font size:    
Page size: 

C F G G#
Rate #1 of 2 versions

Jango Player

Login - add to songbook

SHARE PAGE  



You need to log in to post comments