Guitar Tabs, Chords and Lyrics
Major upgrade!! After one year development the new version of Chordie is now online! Please give feedback.


Same Direction   Hoobastank

 
 E/----------------------------------------000/
 B/----35-35-----35-35-----35-35----35-57--000/
 G/------4--4------4--4------4--4-------------/
 D/-222-------000-----------------------------/
 A/---------------------444------333--5-------/
 D/-------------------------------------------/

 


 


 Intro Pt.2


 

 
 E/----333---333--33-----------------------------------------------------------
 B/----333---333--33-----------------------------------------------------------
 G/--------------------11-11-11---11-11-11--11-11----12-12-12---12-12-12--12-12
 D/-222---222---22--000x--x--x-000x--x--x-00x--x--777x--x--x-777x--x--x-77x--x-
 A/-222---222---22--0009--9--9-0009--9--9-009--9--77710-10-1077710-10-107710-10
 D/-222---222---22--000--------000--------00------777--------777--------77-----
 E/-------------------------------/
 B/-------------------------------/
 G/---------999---11-11-11--11-11-/
 D/-10-10-10xxx000x--x--x-00x--x--/
 A/-10-10-107770009--9--9-009--9--/
 D/-10-10-10---000--------00------/

 


 


 Verse


 

 
 E/----------------------------------------
 B/----35-35-----35-35-----35-35----35-57--
 G/------4--4------4--4------4--4----------
 D/-222-------000--------------------------
 A/---------------------444------333--5----
 D/----------------------------------------
 E/----------------------------------------000/
 B/----35-35-----35-35-----35-35----35-57--000/
 G/------4--4------4--4------4--4-------------/
 D/-222-------000-----------------------------/
 A/---------------------444------333--5-------/
 D/-------------------------------------------/

 


 


 


 


 


 Chorus (x2)


 

 
 E/----333---333--33-------------------------------------------------------------/
 B/----333---333--33-------------------------------------------------------------/
 G/--------------------11-11-11---11-11-11--11-11----------------55555555-777----/
 D/-222---222---22--000x--x--x-000x--x--x-00x--x-777777777777777755555555-777-555/
 A/-222---222---22--0009--9--9-0009--9--9-009--9-777777777777777733333333-555-555/
 E/-222---222---22--000--------000--------00-----7777777777777777-------------555/

 


 


 After the 2nd chorus, Dan plays this...


 

 
 E/----333---333--33----333---333--33/
 B/----333---333--33----333---333--33/
 G/----------------------------------/ x2
 D/-222---222---22---222---222---22--/
 A/-222---222---22---222---222---22--/
 D/-222---222---22---222---222---22--/

 


 


 Bridge


 

 
 E/-----------------------------------------------------------
 B/-----------------------------------------------------------
 G/------------------------------------------55555555-777-----
 D/2022-2022-202-2000-2000-200-0777-0777-077-55555555-777-555-
 A/2022-2022-202-2000-2000-200-0777-0777-077-33333333-555-555-
 D/2022-2022-202-2000-2000-200-0777-0777-077--------------555-
 E/---------------------------------------------------------------------------/
 B/---------------------------------------------------------------------------/
 G/------------------------------------------55555555-777-----55555555-777----/
 D/2022-2022-202-2000-2000-200-0777-0777-077-55555555-777-555-55555555-777-555/
 A/2022-2022-202-2000-2000-200-0777-0777-077-33333333-555-555-33333333-555-555/
 D/2022-2022-202-2000-2000-200-0777-0777-077--------------555--------------555/

 


 


 Final Chorus


 

 
 E/--------------------------------------------------------------------
 B/----35-35-----35-35-------------------------------------------------
 G/------4--4------4--4----12-12-12---12-12-12--12-12-55555555-777-----
 D/-222-------000-------777x--x--x-777x--x--x-77x--x--55555555-777-555-
 A/---------------------77710-10-1077710-10-107710-10-33333333-555-555-
 D/---------------------777--------777--------77-------------------555-
 E/----333---333--33-------------------------------------------------------------
 B/----333---333--33-------------------------------------------------------------
 G/--------------------11-11-11---11-11-11--11-11----------------55555555-777----
 D/-222---222---22--000x--x--x-000x--x--x-00x--x-777777777777777755555555-777-555
 A/-222---222---22--0009--9--9-0009--9--9-009--9-777777777777777733333333-555-555
 D/-222---222---22--000--------000--------00-----7777777777777777-------------555
 E/---------------------------------/
 B/---------------------------------/
 G/55555555-777-----55555555-777----/

 


 [D/55555555-777-555-55555555-777-555/]  


 [A/33333333-555-555-33333333-555-555/]  


 

 
 D/-------------555--------------555/

 


 


 Ending


 


 

 
 E/----333---333--33----333---333--33/
 B/----333---333--33----333---333--33/
 G/----------------------------------/ x2
 D/-222---222---22---222---222---22--/
 A/-222---222---22---222---222---22--/
 D/-222---222---22---222---222---22--/


Important: The song above is NOT stored on the Chordie server. The original song is hosted at www.xguitar.com. Chordie works as a search engine and provides on-the-fly formatting. Chordie does not index songs against artists'/composers' will. To remove this song please click here.

This song is displayed as text-only. Transposing and tuning is only available for chordpro-songs.
Rate #9 of 9 versions

Jango Player

Login - add to songbook

SHARE PAGE  




You need to log in to post comments