Guitar Tabs, Chords and Lyrics
Server problems seems to be fixed. Chordie has been experiencing problems with songs disappearing. These issues now seems to be fixed, but still verifying the fix. If you find anything strange, please email admin@chordie.com.


Elastic Inverted Visions   Hypocrisy

 
 |-----------------------------------------------------------------------------|
 |-----------------------------------------------------------------------------|
 |-----4--4-------------------0-------------4--4--------------------0----------|
 |-------------7--------7--------4-------------------7--------7--------4-------|
 |--7-------7-----7--5-----7--------7----7--------7-----7--5-----7--------7----|
 |-----------------------------------------------------------------------------|

 


 


 (guitar 2) -enters on 3rd, 5th, 7th and 9th repeat of riff 1-


 


 

 
 |-------------|
 |-------------|
 |-------------|
 |------9------| ----> with distortion
 |------7------|
 |------0------|

 


 


 


 RIFF 2 (guitar 1)


 


 x2


 

 
 |-----------------------------------------------------------------------------|
 |-----------------------------------------------------------------------------|
 |-------------------------4---------------------------4-----------------------|
 |-----9---------7-------5---------9---------7------5--------------------------|
 |--7-----7---5-----5-----------7-----7---5-----5------------------------------|
 |-----------------------------------------------------------------------------|
 [--PM-----PM-----PM-----PM-----PM-----PM-----PM----PM--]

 


 


 (guitar 2)


 


 x2


 

 
 |-----------------------------------------------------------------------------|
 |-----------------------------------------------------------------------------|
 |-----------------------------------------------------------------------------|
 |--9--9--9--9--9--9--9--9--9--9--9--9--9--9--9--9--9--9-----------------------|
 |--7--7--7--7--7--7--7--7--7--7--7--7--7--7--7--7--7--7-----------------------|
 |-----------------------------------------------------------------------------|
 [--PM-----PM-----PM-----PM-----PM-----PM-----PM-----PM--]

 


 


 


 RIFF 3 (both guitars) -vocals start-


 


 x4


 

 
 |-----------------------------------------------------------------------------|
 |-----------------------------------------------------------------------------|
 |-----------------------------------------------------------------------------|
 |--9-9---12-------------------------------9-9---12----------------------------|
 |--7-7---10---10---9-9-9-9-9-9-------7----7-7---10---10---5-5-5-5-5-5-5--5-5--|
 |--------------8---7-7-7-7-7-7--7~h9------------------8---3-3-3-3-3-3-3--2-2--|

 


 


 


 RIFF 4 = (guitar 1) ---> repeat riff 1 (x6)


 


 (guitar 2) -from the 3rd to the 6th repeat of riff 1, play the following-


 


 

 
 |-----------------------------------------------------------------------------|
 |-----------------------------------------------------------------------------|
 |-----------------------------------------------------------------------------|
 |--9--9--9--9--9--9--9--9--9--9--9--9--9--9--9--9--9--9-----------------------|
 |--7--7--7--7--7--7--7--7--7--7--7--7--7--7--7--7--7--7-----------------------|
 |-----------------------------------------------------------------------------|
 [--PM-----PM-----PM-----PM-----PM-----PM-----PM-----PM--]

 


 


 


 RIFF 5 (both guitars)


 


 

 
 |----------------------------|
 |----------------------------|
 |----------------------------|
 |----------------------------|
 |--5-5-5-5-5-5--5-5-5-5-5-5--|
 |--3-3-3-3-3-3--2-2-2-2-2-2--|

 


 


 


 RIFF 6 ----> (both guitars) = repeat riff 3 (x4)


 


 


 RIFF 7 x2 (guitar 1)


 


 

 
 |-----------------------------------------------------------------------------|
 |-----------------------------------------------------------------------------|
 |------------------7----------------------------------------------------------|
 |--9-----9------------9--10--9h7--9h7--------10/12~--10~--9~--7~--9h7---------|
 |-----7-----7--10----------------------10~------------------------------------|
 |-----------------------------------------------------------------------------|

 


 


 


 (guitar 2)


 


 

 
 |-----------------------------------------------------------------------------|
 |-----------------------------------------------------------------------------|
 |--9-------------------------7---------5--------------------------------------|
 |--9-------------------------7---------5----------------------2---------------|
 |--7-------------------------5---------3-----3/5~----3~--2~---0---------------|
 |-----------------------------------------------------------------------------|

 


 


 


 (guitar 1)


 


 

 
 |-----------------------------------------------------------------------------|
 |-----------------------------------------------------------------------------|
 |------------------7----------------------------------------------------------|
 |--9-----9------------9--10--9h7--9h7--------10/12~--10~--9~--7~--9h7---------|
 |-----7-----7--10----------------------10~------------------------------------|
 |-----------------------------------------------------------------------------|

 


 


 


 (guitar 2)


 


 

 
 |-----------------------------------------------------------------------------|
 |-----------------------------------------------------------------------------|
 |--9-------------------------7---------5--------------------------------------|
 |--9-------------------------7---------5-----2--------------------------------|
 |--7-------------------------5---------3-----3-------2----2---0---------------|
 |----------------------------------------------------5----3---2---------------|

 


 


 


 


 RIFF 8 (guitar 1)


 


 x1


 

 
 |-----------------------------------------------------------------------------|
 |-----------------------------------------------------------------------------|
 |---9-7-9~--9\5~---7-10-9-10-7~-----9-7-9~-9\5~-----7-5-7~-----9-7-9~---------|
 |-7-------------------------------7---------------5----------5----------------|
 |-----------------------------------------------------------------------------|
 |-----------------------------------------------------------------------------|

 


 


 


 (guitar 2)


 


 x1


 

 
 |-----------------------------------------------------------------------------|
 |-----------------------------------------------------------------------------|
 |------------------7--------4-------------------------------------------------|
 |-7---------3------7--------4-----7--------3------5---------2----------5------|
 |-7---------3------5--------2-----7--------3------5---------2----------5------|
 |-5---------1---------------------5--------1------3---------0----------3------|

 


 


 


 RIFF 9 (guitar 1)


 


 x1


 

 
 |-----------------------------------------------------------------------------|
 |-----------------------------------------------------------------------------|
 |---9-7-9---9-7-9----10-9-10-9---10-9-10--7-4---4-7---4--9-7---------9-7-9----|
 |-7-------7--------7-----------7--------------5-----5--------10-9--5----------|
 |-----------------------------------------------------------------------------|
 |-----------------------------------------------------------------------------| 

 


 


 (guitar 2)


 


 

 
 |-----------------------------------------------------------------------------|
 |-----------------------------------------------------------------------------|
 |-----------------------------------------------------------------------------|
 |-7----------------3----------------------5--------------2---------5----------|
 |-7----------------3----------------------5--------------2---------5----------|
 |-5----------------1----------------------3--------------0---------3----------|


Important: The song above is NOT stored on the Chordie server. The original song is hosted at www.xguitar.com. Chordie works as a search engine and provides on-the-fly formatting. Chordie does not index songs against artists'/composers' will. To remove this song please click here.

This song is displayed as text-only. Transposing and tuning is only available for chordpro-songs.
Rate #3 of 3 versions

Login - add to songbook

SHARE PAGE  




You need to log in to post comments