Guitar Tabs, Chords and Lyrics
Major upgrade!! After one year development the new version of Chordie is now online! Please give feedback.


Idea Track  Idlewild

Band : Idlewild
Album : 100 Broken Windows ('2000)
Song : "Idea Track" (Track #5/14)
well_endowed_dan2@hotmail.com
any questions then dont be afraid to contact me.
check out the inme tabs of mine and some muse.
CHORD OF C#
 
 E----------------------------------------------------------------------
 B-----16-16-13-13--------------------16-16-13-13-----------------------
 G---------------------13-13----------------------------13-13-----------
 D-----------------------------11--11---------------------------11-11---
 A----------------------------------------------------------------------
 E----------------------------------------------------------------------

THE ABOVE CONTINUES ON 2ND GUITAR RIGHT THROUGH THE VERSE
CHORD OF C#
 
 E---------------------------------------------------------------------
 B---------------------------------------------------------------------
 G--5-5-5-5H6-6-6H8-8-8-6-6-6-6-5-5-5-5-H-6-6-6-H-8-10-10-10-10--------
 D---------------------------------------------------------------------
 A---------------------------------------------------------------------
 E---------------------------------------------------------------------

BRIDGE
F# f# F F G#
Pure right its not right
 
 E---------------------------------------------------------------------
 B---------------------------------------------------------------------
 G---------------------------------------------------------------------
 D----4---------------------------3---------------------6--------------
 A----4---------------------------3---------------------6--------------
 E----2---------------------------1---------------------4--------------

PLAYS THE VERSEY BIT AGAIN THEN THE BRIDGE THEN HERERS THE CHORUS
[C#] Pretend it work[A#]s a while, lets[G#] transmit it live, pretend [F#]it works a while
 
 E------------------------------------------------------------------------------
 B------------------------------------------------------------------------------
 G-6----------------------------------------------------------------------------
 D-6--------------------8-------------------------6--------------------------4--
 A-4--------------------8-------------------------6--------------------------4--
 E-----------------------6-------------------------4--------------------------2-

MIDDLE SOLO(?)
DO THIS FOUR TIMES
 
 E-------------------------------------------------------------------
 B-------------------------------------------------------------------
 G---10-10-10-8-8-8-6-6-6-5-5-5-6-6-6-5-5-5-3-3-3-1-1-1--------------
 D-------------------------------------------------------------------
 A-------------------------------------------------------------------
 E-------------------------------------------------------------------

This song is great if ya play and sing it in a bar, trust me.
the crowd will go ape shit.

Important: The song above is NOT stored on the Chordie server. The original song is hosted at www.xguitar.com. Chordie works as a search engine and provides on-the-fly formatting. Chordie does not index songs against artists'/composers' will. To remove this song please click here.

Text color:
Chord color:
Chord grids: 
Font size:    
Page size: 

A# C# F# G#
Rate #3 of 3 versions

Jango Player

Login - add to songbook

SHARE PAGE  




You need to log in to post comments