Guitar Tabs, Chords and Lyrics
Major upgrade!! After one year development the new version of Chordie is now online! Please give feedback.


Little Discourage  Idlewild

Now, this is my 1st tab as a member, it's a brill song by a brill band, and everyone
should learn to play it coz its so good.
It's pretty accurate I think, it sounds good when i play it wit the cd.
Intro/Verse:
 
 e --------------------------------
 B --------------------------------
 G -----4/11--9--9---------4/11--9-
 D ---4------------------4---------
 A -2---------------0--2-----------
 E --------------------------------

Bridge:
 
 e -------------------
 B ---------------5-7-
 G -6--6--9--7--6----- x4
 D -6--6--9--7--6-----
 A -4--4--7--7--4-----
 E -------------------
 e -----------------------------------------
 B -----------------------------------------
 G -----------4-4-4-4-4-7-7-7-7-7-7-7-7-7-7-
 D -4-4-4-4-4-4-4-4-4-4-7-7-7-7-7-7-7-7-7-7-
 A -4-4-4-4-4-2-2-2-2-2-5-5-5-5-5-5-5-5-5-5-
 E -2-2-2-2-2-------------------------------

v v v v ^ v v v v ^ v v v v ^ v v v v ^
Thats to help with the strumming pattern, it goes
1 2 3 4 and, listen to the cd
On the bridge for the second chorus they play this chord over D5, well they play
something which i think sounds like this:
e ---
[B] [---]  
[G]D [-6-]-7- Let ring...
[A] [-4-]  
[E] [---]  
Chorus:
 
 e -----------------------------------------
 B -----------------------------------------
 G -7-7-7-7-7-7-7-7-7-7-7-7-7-7-7-6-6-6-6-6-
 D -7-7-7-7-7-7-7-7-7-7-7-7-7-7-7-6-6-6-6-6-
 A -5-5-5-5-5-5-5-5-5-5-5-5-5-5-5-4-4-4-4-4-
 E -----------------------------------------

v v v v ^ v v v v ^ v v v v ^ v v v v ^
 
 e -----------------------------------------
 B -----------------------------------------
 G -----------------------------------------
 D -4-4-4-4-4-4-4-4-4-4-4-4-4-4-4-7-7-7-7-7-
 A -4-4-4-4-4-4-4-4-4-4-4-4-4-4-4-7-7-7-7-7-
 E -2-2-2-2-2-2-2-2-2-2-2-2-2-2-2-5-5-5-5-5-

v v v v ^ v v v v ^ v v v v ^ v v v v ^
Thats the song, very awesome, i dont have the cd with me at the moment so u may have to
improvise, especially with this last part. This is the solo part played over the chorus
as the song comes to an end.
 
 e ---7---7---5---5---3---3---5---5---5-
 B -5---5---5---5---5---5---5---5---5---
 G -------------------------------------
 D -------------------------------------
 A -------------------------------------
 E -------------------------------------
 e ---7---7---5---5----------------(3)>>>> Ending note.
 B -5---5---5---5---5---5---7---7-------
 G -------------------------------------
 D -------------------------------------
 A -------------------------------------
 E -------------------------------------

THats it, please leave comments, i wanna know what u think.

Important: The song above is NOT stored on the Chordie server. The original song is hosted at www.xguitar.com. Chordie works as a search engine and provides on-the-fly formatting. Chordie does not index songs against artists'/composers' will. To remove this song please click here.

Text color:
Chord color:
Chord grids: 
Font size:    
Page size: 

A B E G
Rate #3 of 3 versions

Login - add to songbook

SHARE PAGE  




You need to log in to post comments