Guitar Tabs, Chords and Lyrics
Login is temporarily disabled for some users. Do not panic. Will be back in an hour or two. DO NOT REREGISTER!!


Some Weird Sin  Iggy Pop

Intro:
[E] [F#] [E] [F#]  
 
 e |----------------|----------------|----------------|----------------|
 B |----------------|----------------|----------------|----------------|
 G |1-1-1-----------|3-3-3-----------|1-1-1-----------|3-3-3-----------|
 D |2-2-2-----------|4-4-4-----------|2-2-2-----------|4-4-4-----------|
 A |2-2-2-----------|4-4-4-----------|2-2-2-----------|4-4-4-----------|
 E |0-0-0-----------|2-2-2-----------|0-0-0-----------|2-2-2-----------| (played 2 times)

[G#m] [F#] [G#m] [F#]  
 
 e |9-7-----9-7-----|7-6-6-7-6-------|9-7-----9-7-----|14-9-9-11-9-----|
 B |2-------2-------|----------------|2-------2-------|7--2-2-4--2-----|
 G |--4-------4-----|4-3-3-4-3-------|--4-------4-----|----------------|
 D |----------------|----------------|----------------|----------------|
 A |----------------|----------------|----------------|----------------|
 E |----------------|----------------|----------------|----------------|

[G#m] Well, I never got my license to l[F#]ive
They won't g[G#m]ive it up so I stand at the w[F#]orld's edge
I'm tr[G#m]ying to break in, oh, I kn[F#]ow it's not for me
And the s[E]ight of it all makes me s[B]ad and ill
That's when I w[Eb]ant s[F#]ome w[G#]eird s[Bb]in
Things get too straight, I can't bear it
I feel stuck, stuck on a pin
I'm trying to break in, oh, I know it's not for me
But the sight of it all
Makes me sad and ill
That's when I want some weird sin
That's when I w[E]ant s[F#]ome weird sin
Just to rel[E]ax with
Yeah, some d[G#]umb, weird sin
For a wh[E]ile anyway with my h[F#]ead on the ledge
Th[E]at's what you get out on the [Eb]edge
Some weird s[E]in
Things get too straight, I can't bear it
I feel stuck, stuck on a pin
I'm trying to break in, oh, I know it's not for me
But the sight of it all
Makes me sad and ill
That's when I want some weird sin
That's when I want some weird sin
Just to relax with
Yeah, some dumb, weird sin
For a while anyway with my head on the ledge
That's what you get out on the edge
Some weird sin
Tabbed by: ARIK
Any comments? - Tell me: strixen87@hotmail.com

Important: The song above is NOT stored on the Chordie server. The original song is hosted at www.xguitar.com. Chordie works as a search engine and provides on-the-fly formatting. Chordie does not index songs against artists'/composers' will. To remove this song please click here.

Text color:
Chord color:
Chord grids: 
Font size:    
Page size: 

B Bb E Eb F# G# G#m
Rate #2 of 2 versions

Login - add to songbook

SHARE PAGE  




You need to log in to post comments