Guitar Tabs, Chords and Lyrics
Login is temporarily disabled for some users. Do not panic. Will be back in an hour or two. DO NOT REREGISTER!!


Private Hell  Iggy Pop

By IGGY POP
From the album "SKULL RING"
Tab by Aleksi
Intro and Verse
[E5] [F#5] [D5] [A5] [B5]  
 
 e||---------------------------
 B||---------------------------
 G||---------7-7---------------
 D||-(2)-4-4-7-7-7-7-9-9-9-9---
 A||-(2)-4-4-5-5-7-7-9-9-9-9---
 E||-(0)-2-2-----5-5-7-7-7-7---

After the first bar guitar 2 plays F# once (Letting it ring)
Intro & Outro Riff (Use lots of tremolo)
 
 e||-------------------------------------------------------------------
 B||-------------------------------------------------------------------
 G||----11-------------------------11----------------------------------
 D||-------10-9----9-11-9----10-------10-9----9-11-9----11-9-----------
 A||-9----------12--------12-----9---------12--------12-------12-11-9--
 E||-------------------------------------------------------------------

Chorus:
[F#5] [D5] [A5] [B5] 
 
 e||----------------------------------------------------
 B||----------------------------------------------------
 G||-------------7-7-7-7-7-7----------------------------
 D||-4-4-4-4-4-4-7-7-7-7-7-7-7-7-7-7-7-7-9-9-9-9-9-9----
 A||-4-4-4-4-4-4-5-5-5-5-5-5-7-7-7-7-7-7-9-9-9-9-9-9----
 E||-2-2-2-2-2-2-------------5-5-5-5-5-5-7-7-7-7-7-7----

[F#5] [D5] [G#5] [C#5] 
 
 e||--------------------------------------
 B||--------------------------------------
 G||-------------7-7-7-7-7-7---------6----
 D||-4-4-4-4-4-4-7-7-7-7-7-7-6-6-6-6-6----
 A||-4-4-4-4-4-4-5-5-5-5-5-5-6-6-6-6-4----
 E||-2-2-2-2-2-2-------------4-4-4-4------

In the second bar of the last chorus the B5 is replaced with C#5
Solo
 
 e||---------------------------------------------------------------------------
 B||---------------------------------------------------------------------------
 G||-11-11-11-11-11-11-11-11-14-14-14-14-14-14-14-14-16-16-16-16-16-16-16-16---
 D||---------------------------------------------------------------------------
 A||---------------------------------------------------------------------------
 E||---------------------------------------------------------------------------
 e||----------------------------------------------------------------------------
 B||----------------------------------------------------------------------------
 G||-18-18-18-18-18-18-18-18--11-11-11-11-11-11-11-11-14-14-14-14-14-14-14-14---
 D||----------------------------------------------------------------------------
 A||----------------------------------------------------------------------------
 E||----------------------------------------------------------------------------
 e||-----------------------------------------------------------------------------
 B||-----------------------------------------------------------------------------
 G||-16-16-16-16-16-16-16-16-18-18-18-18-18-18-18-18-11-11-11-11-11-11-11-11-----
 D||-----------------------------------------------------------------------------
 A||-----------------------------------------------------------------------------
 E||-----------------------------------------------------------------------------
 e||-----------------------------------------------------------------------------
 B||-----------------------------------------------------------------------------
 G||-9-9-9-9-9-9-9-9-7-7-7-7-7-7-7-7-4-4-4-4-6-6-6-6--11-11-11-11-14-14-14-14----
 D||-----------------------------------------------------------------------------
 A||-----------------------------------------------------------------------------
 E||-----------------------------------------------------------------------------
 e||---------------------------------------------------
 B||---------------------------------------------------
 G||-16-16-16-16-18-18-18-18-21-21-21-21b23-23-23-23---
 D||---------------------------------------------------
 A||---------------------------------------------------
 E||---------------------------------------------------


Important: The song above is NOT stored on the Chordie server. The original song is hosted at www.xguitar.com. Chordie works as a search engine and provides on-the-fly formatting. Chordie does not index songs against artists'/composers' will. To remove this song please click here.

Text color:
Chord color:
Chord grids: 
Font size:    
Page size: 

A5 B5 C#5 D5 E5 F#5 G#5
Rate #1 of 1 versions

Jango Player

Login - add to songbook

SHARE PAGE  



You need to log in to post comments