Guitar Tabs, Chords and Lyrics
Major upgrade!! After one year development the new version of Chordie is now online! Please give feedback.


Antarctica   Immortal

 
 D[-3-77-3-88-3-77-3-2-0-2-3-2-3-77-3-88-3-777-2-0]

 


 


 RiffA2


 

 
 D[333333-7777-333333-77777-8888-333333-7777-333333-7777-5555-8888]
 A[333333-7777-333333-77777-8888-333333-7777-111133-7777-5555-8888]
 E[111111-5555-111111-55555-6666-111111-5555-111111-5555-3333-6666]

 


 .. .. .. ..


 RiffA2Continued


 

 
 D[333333-7777-333333-8888-333333-7777-3333-555-----------------]
 A[333333-7777-333333-8888-333333-7777-3333-555-----------------]
 E[111111-5555-111111-6666-111111-5555-1111-333-----------------]

 


 


 RiffA3


 

 
 D[5555555-888888-101010-888-77---------------------------]
 A[5555555-888888-101010-888-77---------------------------]
 E[3333333-666666-8-8-8--666-55---------------------------]

 


 


 RiffA3Continued


 

 
 D[55555555-888888-101010-888-77-11----------------------]
 A[55555555-888888-101010-888-77-11----------------------]
 E[33333333-666666-8-8-8--666-55-9-----------------------]

 


 


 RiffB1


 

 
 D[55555-8-10-555-8------------------]
 A[55555-8-10-555-8------------------]
 E[33333-6-8--333-6------------------]

 


 


 RiffB1Continued


 

 
 A[555-44-222-555-44--------------]
 D[3333-5-6-------------------]
 A[3333-5-6-------------------]
 E[1111-3-4-------------------]

 


 


 RiffC1


 

 
 D[7777-8888-7777-3333---------------]
 A[0--------0------------------------]

 


 


 RiffC1Contintinued


 

 
 D[5555-6-5555-4--------------------]

 


 


 RiffD1


 

 
 G[6666-44--6666-9999-------------------]
 D[6666-44--6666-9999-------------------]
 A[4444-22--4444-7777-------------------]

 


 


 RiffD1Con


 

 
 G[------------7---0--------------]
 D[555-777------------------------]
 A[555-777------------------------]
 E[333-555------------------------]


Important: The song above is NOT stored on the Chordie server. The original song is hosted at www.xguitar.com. Chordie works as a search engine and provides on-the-fly formatting. Chordie does not index songs against artists'/composers' will. To remove this song please click here.

This song is displayed as text-only. Transposing and tuning is only available for chordpro-songs.
Rate #1 of 2 versions

Jango Player

Login - add to songbook

SHARE PAGE  




You need to log in to post comments