Guitar Tabs, Chords and Lyrics
Major upgrade!! After one year development the new version of Chordie is now online! Please give feedback.


Megalomaniac  Incubus

Incubus - Megalomaniac
Album: A crow left of the murder
Tabbed by Dirk Bethge on 12/20/2003 dbethge@wtnet.de
Please donīt forget to rate this Tab as it is a good feedback !!
Intro 4 X
[G]  
 
 E------------------------------------I
 H------------------------------------I
 G---0-----0---0---0-0-----0---0------I
 D---5-5-5-5-5-5-5-5-5-5-5-5-5-5-5----I
 A------------------------------------I
 E------------------------------------I

then
Intro part2
4x
[F] [G] [F]  
 
 E--------------------------------------I
 H--------------------------------------I
 G----0---0-0-0-0-0-----3---3---3-------I
 D-0--3s5-5-5/8-8-8---0-1-1-1-1-1-1-1---I
 A--------------------------------------I
 E--------------------------------------I

Intro part3
4x
[F] [G] [F]  
 
 E--------------------------------------I
 H--------------------------------------I
 G----0---0-0-0-0-0-----3-3-3---3-3-3---I
 D-0--3s5-5-5/8-8-8---0-1-1-1-0-2-2-2---I
 A--------------------------------------I
 E--------------------------------------I

Chorus (0:35)
4x
[G] [F] [G] [B#] [C/G]  
 
 E----------------------6-6-6---3-3-3--I
 H----------------------6-6-6---3-3-3--I
 G----------------------8-8-8---5-5-5--I
 D--5---3---5-----8-8---8-8-8---5-5-5--I
 A--5---3---5-----8-8-0-6-6-6-0-3-3-3--I
 E--3->-1-<-3-->--6-6-0-6-6-6-0-3-3-3--I

Verse (0:48)
2x
 
 E-------------------------1-----------3---------------------------3-------------1-----I
 H----------6--(6)-----3-----0-----6-----6----------0-0--------6------6------3-----3---I
 G--------3----------0---0-----0-0---0--------------4-4----0-0---0-------0-0---0-------I
 D---3s5-(5)----------------------------------------5-5--------------------------------I
 A-------------------------------------------------------------------------------------I
 E-------------------------------------------------------------------------------------I

1x
 
 E--------------------------------------I----------------------6-6-6-----3-3-3------I
 H--------------------------------------I----------------------6-6-6-----3-3-3------I
 G----0---0-0-h3--3-3-------3-------3---I-----0-0-0-0-0-0-0----8-8-8-----5-5-5------I
 D-0--3s5-5-5-(5)-----0-1-1-1-0-2-2-2---I--0--3s5-5-5/8-8-8----8-8-8-----5-5-5------I
 A--------------------------------------I----------------------6-6-6--0--3-3-3---0--I
 E--------------------------------------I----------------------6-6-6--0--3-3-3---0--I 

Chorus (1:23)
4x
 
 E----------------------6-6-6---3-3-3--I
 H----------------------6-6-6---3-3-3--I
 G----------------------8-8-8---5-5-5--I
 D--5---3---5-----8-8---8-8-8---5-5-5--I
 A--5---3---5-----8-8-0-6-6-6-0-3-3-3--I
 E--3->-1-<-3-->--6-6-0-6-6-6-0-3-3-3--I

Verse (1:37)
 
 E-----------------0---0---0---3--------3-----------1-----I
 H----------6--(6)---6---6---6------6-----6------3----3---I
 G--------3--------------------0--0---0------0-0---0------I
 D---3s5-(5)----------------------------------------------I
 A--------------------------------------------------------I
 E--------------------------------------------------------I
 E-------------------------1-----------3---------------------------3-------------1-----I
 H----------6--(6)-----3-----0-----6-----6----------0-0--------6------6------3-----3---I
 G--------3----------0---0-----0-0---0--------------4-4----0-0---0-------0-0---0-------I
 D---3s5-(5)----------------------------------------5-5--------------------------------I
 A-------------------------------------------------------------------------------------I
 E-------------------------------------------------------------------------------------I
 E-----------------0---0---0---3--------1-----------3-----I------------------3-------------1----I
 H----------6--(6)---6---6---6------3-----3------6----6---I---0-0--------6------6------3-----3--I
 G--------3--------------------0--0---0------0-0---0------I---4-4----0-0---0-------0-0---0------I
 D---3s5-(5)----------------------------------------------I---5-5-------------------------------I
 A--------------------------------------------------------I-------------------------------------I
 E--------------------------------------------------------I-------------------------------------I
 E--------------------------------------I----------------------6-6-6-----3-3-3------I
 H--------------------------------------I----------------------6-6-6-----3-3-3------I
 G----0---0-0-h3--3-3-------3-------3---I-----0-0-0-0-0-0-0----8-8-8-----5-5-5------I
 D-0--3s5-5-5-(5)-----0-1-1-1-0-2-2-2---I--0--3s5-5-5/8-8-8----8-8-8-----5-5-5------I
 A--------------------------------------I----------------------6-6-6--0--3-3-3---0--I
 E--------------------------------------I----------------------6-6-6--0--3-3-3---0--I 

Chorus(2:18)
8x
 
 E----------------------6-6-6---3-3-3--I
 H----------------------6-6-6---3-3-3--I
 G----------------------8-8-8---5-5-5--I
 D--5---3---5-----8-8---8-8-8---5-5-5--I
 A--5---3---5-----8-8-0-6-6-6-0-3-3-3--I
 E--3->-1-<-3-->--6-6-0-6-6-6-0-3-3-3--I

Interlude (2:59)
2x
 
 E---------10-------10-------10----------------------10-------10-------10---------------------I
 H------13-------13-------13----13----13----------13-------13-------13----13----13------------I
 G---10-------10-------10----------10----10-10h12-------12-------12----------12----12--12p10--I
 D--------------------------------------------------------------------------------------------I
 A--------------------------------------------------------------------------------------------I
 E--------------------------------------------------------------------------------------------I

4x (3:12)
 
 E-------------------------------------------------------I
 H---13--13--10--13--13--10--13--13---10--13--15--13-10--I
 G---12--12--10--12--12--10--12--12---10--12--14--12-10--I
 D---10--10--10--10--10--10--10--10---10--10--0---10-10--I
 A-------------------------------------------------------I
 E-------------------------------------------------------I

again 3x (3:26) 1x
 
 E-------------------------------------------------------I-----------------------------------------------------------------I
 H---13--13--10--13--13--10--13--13---10--13--15--13-10--I---13--13--10--13--13--10--13--13--10---13b^-13b^-13b^-13b^-13b^-I
 G---12--12--10--12--12--10--12--12---10--12--14--12-10--I---12--12--10--12--12--10--12--12--10---12b^-12b^-12b^-12b^-12b^-I
 D---10--10--10--10--10--10--10--10---10--10--0---10-10--I---10--10--10--10--10--10--10--10--10----------------------------I
 A-------------------------------------------------------I-----------------------------------------------------------------I
 E-------------------------------------------------------I-----------------------------------------------------------------I

2X clean (3:40)
 
 E---------------------------------------I
 H---------------------------------------I
 G---------------------------------------I
 D-----------------------8-8-8-x-x-5-5-5-I
 A---5-5--3-5s-8-8--x-x--6-6-6-x-x-3-3-3-I
 E---3-3--1-3s-6-6--x-x------------------I

Chorus (outro)(3:46)
8x
 
 E----------------------6-6-6---3-3-3~~~~I
 H----------------------6-6-6---3-3-3~~~~I
 G----------------------8-8-8---5-5-5~~~~I
 D--5---3---5-----8-8---8-8-8---5-5-5~~~~I
 A--5---3---5-----8-8-0-6-6-6-0-3-3-3~~~~I
 E--3->-1-<-3-->--6-6-0-6-6-6-0-3-3-3~~~~I

I think, this is the right tab for the song. it fits mikeīs guitar Style !
Very nice song ! not so hard to play. Please send corrections to dbethge@wtnet.de

Important: The song above is NOT stored on the Chordie server. The original song is hosted at www.xguitar.com. Chordie works as a search engine and provides on-the-fly formatting. Chordie does not index songs against artists'/composers' will. To remove this song please click here.

Text color:
Chord color:
Chord grids: 
Font size:    
Page size: 

C/G F G
Rate #2 of 3 versions

Jango Player

Login - add to songbook

SHARE PAGE  



You need to log in to post comments