Guitar Tabs, Chords and Lyrics
Major upgrade!! After one year development the new version of Chordie is now online! Please give feedback.


The Warmth   Incubus

 
 |-----------------------------19----|
 |--19^--17----17--------------------|
 |----------19----19---17--16-----16-|
 |-----------------------------------|
 |-----------------------------------|
 |-----------------------------------|

 


 [1/4] [-]  


 Chorus


 ~~~~~~


 

 
 |--12--12-12-12-12-12-8--8-8-8-8-8-3--3-3-3-3-3-3--0-3-0--0-0-0-0-|
 |--12--12-12-12-12-12-8--8-8-8-8-8-3--3-3-3-3-3-3--0-3-0--0-0-0-0-|
 |-----------------------------------------------------------------|
 |-----------------------------------------------------------------|
 |-----------------------------------------------------------------|
 |-----------------------------------------------------------------|

 


 


 Bridge


 ~~~~~~


 

 
 |----------------------------------|
 |----------------------------------|
 |----------------------------------|
 |--9-7-9-7-9-7-7-9-9-7-9-7-9-7-7-7-|
 |----------------------------------|
 |----------------------------------|

 


 


 Last Chorus


 ~~~~~~~~~~~


 

 
 |------------------------------------------------------------|
 |------------------------------------------------------------|
 |--9--9-9-9-9-9-9-x-x-7--7-7-7-x-----------------------------|
 |--9--9-9-9-9-9-9-x-x-7--7-7-7-x-5--5-5-5-5-5-5-x-x-2--2-2-2-|
 |--7--7-7-7-7-7-7-x-x-5--5-5-5-x-5--5-5-5-5-5-5-x-x-2--2-2-2-|
 |--------------------------------3--3-3-3-3-3-3-x-x-0--0-0-0-|

 


 


 After repeating the above 2x,


 Gtr 2 comes in with this:


 

 
 |-------------------------7---|
 |--7^--5---5------------------|
 |--------7---7---5--4---4---4-|
 |-----------------------------|
 |-----------------------------|
 |-----------------------------|


Important: The song above is NOT stored on the Chordie server. The original song is hosted at www.xguitar.com. Chordie works as a search engine and provides on-the-fly formatting. Chordie does not index songs against artists'/composers' will. To remove this song please click here.

This song is displayed as text-only. Transposing and tuning is only available for chordpro-songs.
Rate #3 of 8 versions

Jango Player

Login - add to songbook

SHARE PAGE  




You need to log in to post comments