Guitar Tabs, Chords and Lyrics
Major upgrade!! After one year development the new version of Chordie is now online! Please give feedback.


Glass   Incubus

 
 I choose ---GLASS--- cuz it´s my favorite song of ---INCUBUS---.

 


 This song is not very hard to play,but you need some pedal EfectS for the right


 Sound.


 This song is very "FAST",except the PRÉ and CHORUS part, listen the CD to


 get the rhythm.


 


 LET´S START YOUR MISSION..................


 


 x--gost note


 ~--let it ring


 --slide(down)


 r-rest


 p.m.-palm muted


 "--distortion


 *--WAH-WAH pedal("clean")


 


 INTRO


 

 
 G|*****************-|----------------|
 D|77777777777777777-|----------------| <----This part is not soo fast as the
 A|999X999X999X999X7-|--------3-------| first one.
 E|999X999X999X999X9-|--3-3-3---33~---|
 |------#1--------| |-----#2-----|

 


 


 VERSE#1


 

 
 G|******************-----------------|
 D|xxxxx7777777777777-----------------|
 A|xxxxx999x999x999x7-----------------|
 E|xxxxx999x999x999x9-----------------|

 


 


 PRÉ-CHORUS#1


 

 
 (WAH-WAH pedal and a lot of DISTORTION----very_fast---) <---when BRANDON
 B|-333r33r33r333r33r33r333r33r33r333r33r33\---------| sings..."you´re
 D|-333r33r33r333r33r33r333r33r33r333r33r33\---------| never gonna be..." 

 


 


 


 PRÉ-CHORUS#2


 

 
 A|--------3-------------2------|
 E|--3-3-3---3-3-3-2-2-2---2-2--|

 


 


 CHORUS #1 | this is the fast part #2


 

 
 B|---------------------------------***---|-************************-----|
 G|-5~---55~---55~---3-4--5---55~---x\---|-***-*--*--*-**--********-----|
 D|-5~---55~---55~---3-4--5---55~---x\---|-7778 -8 810--101010//-----|
 A|-3~---33~---33~---1-2--3---33~---x\---|-99910-101013--131313//-----|
 E|-3~---33~---33~---1-2--3---33~---x\---|-99910-101013--131313//-----|
 |---p.m.---| 

 


 


 POST-CHORUS("two accords,to sound weel")


 

 
 E|-----5~~--|
 B|--0-------|

 


 *


 


 POST-"VERSE"


 This part is just a `JAM´ after some--verses & chorus--.


 I´m not pretty sure if this sound is made by the guitar


 Or the turn-tables,anyway i play it like this........


 


 

 
 E|-0~~-----------|-5~~-----------|
 B|-0~~-----------|-0~~-----------|
 G|-0~~-----------|---------------|
 D|-0~~-----------|---------------|

 


 [#1] [#2]  


 OUTRO(HEAVY_PART)


 I´m not 100% sure about these riff´s,but they sound cool for me!!!


 

 
 E|---------------------6~~~~--|
 B|""""""""""""---------*------|
 G|----------------------------| <-----#1
 D|--6~6~6~6~6~~---------------|
 E|--6~6~6~6~6~~---------------|
 A|--6~6~6~6~6~~---------------|

 


 


 Then....


 

 
 D|--6~6~6~6~6~~----777x777x777xxx7-7-8--5--------------0~~---5~~--|
 E|--6~6~6~6~6~~----999x999x999xxx7-9-10-7--------------0~~--------|<----#2
 A|--6~6~6~6~6~~----999x999x999xxx9-9-10-7--------------0~~--------|

 


 **********************


 ENDING


 

 
 E|----------------------------------------------------------------|
 B|----------------------------------------------------------------|
 G|--*************************-------------------------------------|
 D|--7778--8-8-11111111--//3-------------------------------------|
 A|--99910-101013131313--//5-------------------------------------|
 E|--99910-101013131313--//5-------------------------------------| 

 


 


 


 AND THE SONG GOES LIKE THIS:


 --intro#1_(5x)


 --intro#2 --pré-chorus#2


 --post-verse --chorus_(2x)


 --verse_(2x) --outro#1_(3x)


 --pré-chorus#2 --outro#2


 --chorus --post-verse


 --post-chorus --verse_(2x)


 --pré-chorus#1 --chorus#1_(4x)#2_(3x)


 --verse_(2x) --ending


 

 
 --post-verse --post-chorus 

 


 --verse_(2x) --pre-chorus#1


 

 
 --pré-chorus#1 --post-verse


Important: The song above is NOT stored on the Chordie server. The original song is hosted at www.xguitar.com. Chordie works as a search engine and provides on-the-fly formatting. Chordie does not index songs against artists'/composers' will. To remove this song please click here.

This song is displayed as text-only. Transposing and tuning is only available for chordpro-songs.
Rate #1 of 1 versions

Jango Player

Login - add to songbook

SHARE PAGE  




You need to log in to post comments