Guitar Tabs, Chords and Lyrics
Major upgrade!! After one year development the new version of Chordie is now online! Please give feedback.


Baker St. Muse  Jethro Tull

Baker Street muse
4/8 time, capo 2nd fret, nylon string guitar, flatpicked
Baker Street, Take One
[Em] [D] [Dsus2]  
 
 e-|----------------12-----|--5-h7-p5-p0--------------------
 B-|-------------12--------|--------------7-----------5-----
 G-|-----------0-----------|--------------7-----------7-----
 D-|--------2--------------|--------------0-----------0-----
 A-|-----2-----------------|--------------------------------
 E-|--0--------------------|--------------------------------
 e-|-----------------------------------------|--------
 B-|-----------------------------------------|--------
 G-|-----------------------------------------|--------
 D-|--2-h3-p2-p0-----------------------------|--------
 A-|--------------2-h3-p2-p0-----------------|--------
 E-|-----------------------------3-/5--------|-------- 

Shit, shit, shit.
Take Two
(:
[Em] [D] [Dsus2]  
 
 e-|----------------12-----|--5-h7-p5-p0--5-h7-p5--5-----|--
 B-|-------------12--------|--------------7--------5-----|--
 G-|-----------0-----------|--------------7--------7-----|--
 D-|--------2--------------|--------------0--------0-----|--
 A-|-----2-----------------|-----------------------------|--
 E-|--0--------------------|-----------------------------|-- 

^ (hammer/pull with pinky)
[Em]  
 
 e-|--------------------------------------------------|---
 B-|--------------------------------------------------|---
 G-|--------------------------------------------------|---
 D-|--2-h3-p2-p0-----------------------0--------2-----|---
 A-|--------------2-h3-p2-p0--------------------------|---
 E-|-----------------------------3-/5--------0--------|--- 

:)
[Em]  
 
 e-|----------------12--|--
 B-|-------------12-----|--
 G-|-----------0--------|--
 D-|--------2-----------|--
 A-|-----2--------------|--
 E-|--0-----------------|-- 

(verse)
(:
[C] [D] [Em] [D]  
 
 e-|--0-----2-----|--3--2--0-----|--2-----------|--
 B-|--1-----3-----|--------------|--3-----------|--
 G-|--0-----2-----|--------------|--2-----------|--
 D-|--2-----0-----|--------2-----|--0-----------|--
 A-|--3-----------|-----2-----2--|--------------|--
 E-|--------------|--0-----------|--------------|-- 

Win---dy busstop click shop window
Sha---dy gentleman fly button
[C] [Em]  
 
 e-|--0--------------------|--0-----------------|--
 B-|--1--------------------|--0-----------------|--
 G-|--0-----------0--------|--0-----------------|--
 D-|--2-----2--4-----2--0--|--2--------------0--|--
 A-|--3--------------------|--2--------2--3-----|--
 E-|-----------------------|--0-----------------|-- 

heel
feel
:)
[D] [Dsus4] [Em7]  
[D] [D]  
 
 e-|--2--------3--2--0--2--|--
 B-|--3--------3--3--3--3--|--
 G-|--2--------2--2--0--2--|--
 D-|--0--------0--0--0--0--|--
 A-|-----------------------|--
 E-|-----------------------|-- 

In the [G]under[D]pass, the [C]blind man [G]stands
With [D]cold flute [B]hands

Important: The song above is NOT stored on the Chordie server. The original song is hosted at www.xguitar.com. Chordie works as a search engine and provides on-the-fly formatting. Chordie does not index songs against artists'/composers' will. To remove this song please click here.

Text color:
Chord color:
Chord grids: 
Font size:    
Page size: 

B C D Dsus2 Dsus4 Em Em7 G
Rate #1 of 1 versions

Login - add to songbook

SHARE PAGE  



You need to log in to post comments