Guitar Tabs, Chords and Lyrics
Server problems seems to be fixed. Chordie has been experiencing problems with songs disappearing. These issues now seems to be fixed, but still verifying the fix. If you find anything strange, please email admin@chordie.com.


Angel Standing By  Jewel

To: guitar@olga.net
Subject: TAB: "Angel Standing By" by Jewel
"Angel Standing By"
written by Jewel Kilcher
song (C) 1994 Wiggly Tooth
from the album Pieces Of You
guitar transcription by Mark A. Willette
________________________________________________________________
tuning:
 
 -- C# -----
 -- G# -----
 -- F -----
 -- C# -----
 -- G# -----
 -- C# -----

Note: This song is loaded with beautiful harmonics. Any note
above which an "H" appears should be played as a harmonic.
[3/4]  
(Intro)
[B] [B] [B] [B] [B] [B] [B] [B] [B] [B] [B] [B] [B] [B] [B] [B] [B] [B] [B] [B] [B] [B] [B] [B] 
 
 ----------12----------------12----------------------------------
 -------12----12----------12-------------------------------------
 ----12----------12----12-------12----------7-----------7--------
 -12----------------12-------------12-----7---7-------7---7------
 ---------------------------------------7-------7---7-------7----
 -------------------------------------7-----------7--------------

[B] [B] [B] [B] [B] [B] [B] [B] [B] [B] [B] [B] [B] [B] [B] [B] [B] [B] 
 
 ----------------------12----------------12----------------------
 -----5-----7-------12----12----------12----12-------------------
 ---5-----7------12----------12----12----------12----------------
 -5-----7-----12----------------12-------------------------------
 ----------------------------------------------------------------
 ----------------------------------------------------------------

All... ...through the
[B] [B] [B] [B] [B] [B]  
 
 ----------12----------------------------------------------------
 -------12----12-------------------------------------------------
 ----12----------12----------------------------------------------
 -12----------------( repeated 3 more times )--------------------
 ----------------------------------------------------------------
 ----------------------------------------------------------------

night...
 
 ----------------------------------------------------------------
 ----------------------------------------------------------------
 -------7--------------------------------------------------------
 -----7---7------------------------------------------------------
 ---7-------7----------------------------------------------------
 -7-----------( repeated 3 more times )--------------------------

I'll... be watching
 
 -------5--------------------------------------------------------
 -----5---5------------------------------------------------------
 ---5-------5----------------------------------------------------
 -5-----------( repeated 3 more times )--------------------------
 ----------------------------------------------------------------
 ----------------------------------------------------------------

over you. And
[B] [B] [B] [B] [B] [B]  
 
 ----------12----------------------------------------------------
 -------12----12-------------------------------------------------
 ----12----------12----------------------------------------------
 -12----------------( repeated 3 more times )--------------------
 ----------------------------------------------------------------
 ----------------------------------------------------------------

all... ...through the
[B] [B] [B] [B] [B] [B]  
 
 ----------12----------------------------------------------------
 -------12----12-------------------------------------------------
 ----12----------12----------------------------------------------
 -12----------------( repeated 3 more times )--------------------
 ----------------------------------------------------------------
 ----------------------------------------------------------------

night......
 
 ----------------------------------------------------------------
 ----------------------------------------------------------------
 -------7--------------------------------------------------------
 -----7---7------------------------------------------------------
 ---7-------7----------------------------------------------------
 -7-----------( repeated 3 more times )--------------------------

I'll... be standing
 
 -------5--------------------------------------------------------
 -----5---5------------------------------------------------------
 ---5-------5----------------------------------------------------
 -5-----------( repeated 3 more times )--------------------------
 ----------------------------------------------------------------
 ----------------------------------------------------------------

over you. And
[B] [B] [B] [B] [B] [B]  
 
 ----------12----------------------------------------------------
 -------12----12-------------------------------------------------
 ----12----------12----------------------------------------------
 -12----------------( repeated 3 more times )--------------------
 ----------------------------------------------------------------
 ----------------------------------------------------------------

through bad
[B] [B] [B] [B] [B] [B] [B] [B] [B] [B] [B] [B]  
 
 ----------12----------------12---------
 -------12----12----------12----12------
 ----12----------12----12----------12---
 -12----------------12------------------
 ---------------------------------------
 ---------------------------------------

dreams...
 
 ----------11----------------11---------
 -------11----11----------11----11------
 ----11----------11----11----------11---
 -11----------------11------------------
 ---------------------------------------
 ---------------------------------------

I'll...
 
 ----------10----------------10---------
 -------10----10----------10----10------
 ----10----------10----10----------10---
 -10----------------10------------------
 ---------------------------------------
 ---------------------------------------

be...
 
 -------9-----------9-------------------
 -----9---9-------9---9-----------------
 ---9-------9---9-------9---------------
 -9-----------9-------------------------
 ---------------------------------------
 ---------------------------------------

right there baby telling you everything's gonna be al-
 
 ----------------------------------------------------------------
 -------4--------------------------------------------------------
 -----3---3------------------------------------------------------
 ---2-------2----------------------------------------------------
 -0-----------( repeated 3 more times )--------------------------
 ----------------------------------------------------------------

right... And
 
 ----------------------------------------------------------------
 ----------------------------------------------------------------
 -------0--------------------------------------------------------
 -----0---0------------------------------------------------------
 ---0-------0----------------------------------------------------
 -0-----------( repeated 3 more times )--------------------------

when you
[B] [B] [B] [B] [B] [B] [B] [B] [B] [B] [B] [B]  
 
 ----------12----------------12---------
 -------12----12----------12----12------
 ----12----------12----12----------12---
 -12----------------12------------------
 ---------------------------------------
 ---------------------------------------

cry...
 
 ---------------------------------------
 ----------11----------------11---------
 -------11----11----------11----11------
 ----11----------11----11----------11---
 -11----------------11------------------
 ---------------------------------------

I'll...
 
 ---------------------------------------
 ----------10----------------10---------
 -------10----10----------10----10------
 ----10----------10----10----------10---
 -10----------------10------------------
 ---------------------------------------

...
 
 -------9-----------9-------------------
 -----9---9-------9---9-----------------
 ---9-------9---9-------9---------------
 -9-----------9-------------------------
 ---------------------------------------
 ---------------------------------------

be there baby, telling you you were never nothin' less than
 
 ----------------------------------------------------------------
 -------4--------------------------------------------------------
 -----3---3------------------------------------------------------
 ---2-------2----------------------------------------------------
 -0-----------( repeated 3 more times )--------------------------
 ----------------------------------------------------------------

beautiful. So
 
 ----------------------------------------------------------------
 ----------------------------------------------------------------
 -------0--------------------------------------------------------
 -----0---0------------------------------------------------------
 ---0-------0----------------------------------------------------
 -0-----------( repeated 3 more times )--------------------------

don't...
 
 ----------------------------------------------------------------
 --------------------------------4-------------------------------
 -------5-----------5----------3---3-----------------------------
 -----5---5-------5---5------2-------2---------------------------
 ---5-------5---5-------5--0-----------0-------------------------
 -5-----------5--------------------------------------------------

I'm your angel standing... by.
 
 ---------------------------------
 ---------------------------------
 ---------------------------------
 ---------------------------------
 ---------------------------------
 ---------------------------------

[B] [B] [B] [B] [B] [B] [B] [B] [B] [B] [B] [B] [BBBB] 
 
 ----------12----------------12-----------12---------------------
 -------12----12----------12----12-------12----------------------
 ----12----------12----12----------12---12-----------------------
 -12----------------12-----------------12------------------------
 --------------------------------------(slow harmonic strum)-----
 ----------------------------------------------------------------


Important: The song above is NOT stored on the Chordie server. The original song is hosted at www.xguitar.com. Chordie works as a search engine and provides on-the-fly formatting. Chordie does not index songs against artists'/composers' will. To remove this song please click here.

Text color:
Chord color:
Chord grids: 
Font size:    
Page size: 

B
Rate #1 of 5 versions

Login - add to songbook

SHARE PAGE  




You need to log in to post comments